Tono: G
Has a tab for it i'm doin it my 
self.... Plz vote if u think its 
good


Intro : Heavy Distortion

E|--------------------------------
B|--------------------------------
G|--------------------------------
D|--------------------------------
A|-3-3-3333-33-3333-33-33-3-3-----
E|-3-1-1111-11-1111-11-11-1-1-----



Then play

E|-------------------------------
B|-------------------------------
G|-------------------------------
D|-------------------------------
A|-78-5-5-77-78-5-----------78-5-
E|----------------55555555-------

E|----------------------------| 
B|----------------------------| 
G|----------------------------| 
D|----------55555555----------| 
A|5-77-78-5-------------------| 
E|----------------------------| 



Then Pre Chorus

E|--------------------------------
B|--------------------------------
G|--------------------------------
D|--------------------------------
A|--5555---3333-------------------
E|--3333---1111-------------------



Then in the chorus play

E|--------------------------------
B|--------------------------------
G|--------------------------------
D|-3h5----------------------------
A|-----5h7---------------Then-----
E|---------7h9-77777777-------7h9-

E|---------------------------| 
B|---------------------------| 
G|---------------------------| 
D|3h5------------------------| 
A|----5h7-77777777-----------| 
E|---------------------------| 


* Repeat intro Solo : Look at key at the bottom for symbols E|-------------------------------- B|-------------------------------- G|--7^-Then-----7-9-9>>>>20Then--- D|----------7-9------------------- A|-------------------------------- E|-------------------------------- E|------------------------------| B|8 times-----------------------| G|--v----then-------------------| D|77h9p7-----777777777777-------| A|------------------------------| E|------------------------------| *Then reapeat chorus again* *Then again but wit no signin* *Then repeat intro* Key : ^ = Massive bend and pick 4 times >>>> = Slide h = Hammer on Thanks guys If u think this tab is good plz vote Any Comment or anythin Just email me at * Thnkz
Composición: Colaboración y revisión: