Tono: G
Tuning: Bb-F-Bb-Eb-G-C



INTRO IS SAME AS VERSE EXCEPT THE 
----------------------------------
----------------------------------
----------------------------------
----------------------------------
-00-0-0-0-0-0-00-00-0-0-0-----333-
-00-0-0-0-0-0-00-00-0-0-0-333-----
  PICKUP SWITCH IS ONE BACK AND WAH
-|-------------------------------- 
-|-------------------------------- 
-|-------------------------------- 
-|-------------------------------- 
-|00-0-0-0-0-0-00-00-0-0-0-----000 
-|00-0-0-0-0-0-00-00-0-0-0-333---- 


CHORUS -------------------------------- -------------------------------- -555555------------------555555- -555555-777777-000000----555555- -333333-777777-000000----333333- --------777777-000000----------- -|-------------- -|-------------- -|-------------- -|7777-8888-0000 -|7777-8888-0000 -|7777-8888-0000 POST CHORUS ---------------------------- ---------------------------- ---------------------------- ---------------------------- -00-0-0-0-0-0-00-00-0-0-0-00 -00-0-0-0-0-0-00-00-0-0-0-00 BRIDGE-GUITAR ONE ---------------------------- ---------------------------- ---------------------------- ---------------------------- -0-0-000-0-0-000-0-0-000-0-0 -0-0-000-0-0-000-0-0-000-0-0 BRIDGE-GUITAR TWO-TREMOLO PICKING -13-13-13-13-13-13-12-12-12-12-12- ---------------------------------- ---------------------------------- ---------------------------------- ---------------------------------- ---------------------------------- -|12---------13-13-13-13-13-13 -|---------------------------- -|---------------------------- -|---------------------------- -|---------------------------- -|---------------------------- BY TIAGO AUGUSTO
Composición: Butch Walker / Morgan RoseColaboración y revisión: Tiago Augusto