Denial

Sevendust

A
123
X02220
Tono: G
For Riff A, it helps to keep your pinky on the F# string while you do
the other notes.  , "Denial" by Sevendust
Tune Down 1 1/2 Steps
Tabs for Guitar 1 (dist.)

Intro

#1t1##1t2#C#----------------------------------------------------------------
G#----------------------------------------------------------------
E ----------------------------------------------------------------
B -------4----------4-------7----5----4-----6------6/7------------
F#---7--------7---------6-----------------------------------------
B ----------------------------------------------------------------#/1t2##/1t1#

Riff A

#2t1##2t2#C#----------------------------------------------------------------
G#----------------------------------------------------------------
E ----------------------------------------------------------------
B -----------------------------------------------^-----^----------
F#---5-----------5----------5---------5----------^-----^----------
B ------3--0---2---3--0---2---3--0--2---3--0--2--2--0--2--0-------#/2t2##/2t1#

#3t1##3t2#C#----------------------------------------------------------------
G#-----------------------------------------------------^----------
E -----------------------------------------------------^----------
B -----------------------------------------------^-----2----------
F#---5-----------5----------5---------5----------^----------------
B ------3--0---2---3--0---2---3--0--2---3--0--2--2--0-----0-------#/3t2##/3t1#

Verse (x3)

#4t1##4t2#C#----------------------------------------------------------------
G#----------------------------------------------------------------
E --5-4-----5-4-----5-4-----5-4-----------------------------------
B --3-2-----3-2-----3-2-----3-2-----------^-----^-----------------
F#--3-2-----3-2-----3-2-----3-2-----------^-----^-----------------
B --3-2-----3-2-----3-2-----3-2-----0--0--2--0--2--0--------------#/4t2##/4t1#

Chorus

#5t1##5t2#C#----------------------------------------------------------------
G#----------------------------------------------------------------
E --4---4-4-4-4---4--4-4--4-4------4---4-4-4-4---4--4-4--4-4------
B --4---4-4-4-4---4--4-4--4-4------2---2-2-2-2---2--2-2--2-2------
F#--2---2-2-2-2---2--2-2--2-2------3---3-3-3-3---3--3-3--3-3------
B ----------------------------------------------------------------#/5t2##/5t1#

#6t1##6t2#C#----------------------------------------------------------------
G#----------------------------------------------------------------
E --4---4-4-4-4---4----4--4-4------4---4-4-4-4---4----4--4-4------
B --4---4-4-4-4---4----4--4-4------2---2-2-2-2---2----2--2-2------
F#--2---2-2-2-2---2----2--2-2------0---0-0-0-0---0----0--0-0------
B --2---2-2-2-2---2----2--2-2------0---0-0-0-0---0----0--0-0------#/6t2##/6t1#

#7t1##7t2#C#----------------------------------------------------------------
G#----------------------------------------------------------------
E --4---4-4-4-4---4--4-4--4-4------4---4-4-4-4---4--4-4--4-4------
B --4---4-4-4-4---4--4-4--4-4------2---2-2-2-2---2--2-2--2-2------
F#--2---2-2-2-2---2--2-2--2-2------3---3-3-3-3---3--3-3--3-3------
B ----------------------------------------------------------------#/7t2##/7t1#

#8t1##8t2#C#----------------------------------------------------------------
G#----------------------------------------------------------------
E --4---4-4-4-4---4----4----4------4---4-4-4-4---4----4--4-4------
B --4---4-4-4-4---4----4----4------4---4-4-4-4---4----4--4-4------
F#--2---2-2-2-2---2----2----2------X---X-X-X-X---X----X--X-X------
B --2---2-2-2-2---2----2----2------4---4-4-4-4---4----4--4-4------#/8t2##/8t1#

Interlude
    P.M....................................|
#9t1##9t2#C#----------------------------------------------------------------
G#----------------------------------------------------------------
E ----------------------------------------------------------------
B --------------------------------------------^-------^-----------
F#----0---2---0-----0---2---0-----0---2---0---^-------^-----------
B ----0---2---0-----0---2---0-----0---2---0---2---0---2-----------#/9t2##/9t1#

#10t1#    P.M....................................|
#10t2#C#----------------------------------------------------------------
G#----------------------------------------------------^-----------
E ----------------------------------------------------^-----------
B --------------------------------------------^-------2-----------
F#----0---2---0-----0---2---0-----0---2---0---^-------------------
B ----0---2---0-----0---2---0-----0---2---0---2---0---------------#/10t2##/10t1#

Outro--same as Chorus

BY TIAGO AUGUSTO
Composición: SevendustColaboración y revisión: Tiago Augusto