Tono: G

Intro uses a trem effect set to 16th
 note with wah.



  (0:00-0:08) Intro 1 (121212 and 10101010 are 12's not 1's and 2's)

eb|------------------------------
Bb|------------------------------
Gb|------------------------------
Db|-------121212-10101010101010--
Ab|------------------------------
Db|000000------------------------

e|-----------------------------|   
B|-----------------------------|   
G|-----------------------------|2x 
D|000000-----------------------|   
A|-----------------------------|   
D|-------121212-10101010101010-|   


    Intro 2
  (0:08-0:26)      4x               
  2x                       2x

eb|------------------|------------
Bb|------------------|------------
Gb|---/7-/7-/7-/7-/7-|---/9-/9-/9-
Db|----0--0--0--0--0-|----0--0--0-
Ab|---/5-/5-/5-/5-/5-|---/7-/7-/7-
Db|00----------------|00----------
   **                 **          

e|------|-----------------------| 
B|------|-----------------------| 
G|/9-/9-|---/11-/11-/11-/11-/11-| 
D|-0--0-|----0---0---0--/0---0--| 
A|/7-/7-|---/9--/9--/9--/9--/9--| 
D|------|00---------------------| 
       **                       



  (0:27-1:00) Verse

eb|-----------------------------
Bb|-----------------------------
Gb|-----3:--------/5-5----------
Db|---0-1:--------/3-3-0--------
Ab|---0-1:--------/3-3-0--------
Db|00-0-1:--------/3-3-0--00-00-

e|--------------------|   the 4t
B|--------------------|   riff C
G|--------------------|4x intro 
D|--------------------|   the 0'
A|--------------------|         
D|00-00-000-00-00-00-0|this last

h 
li
ef
s 
  
 0

u|t
u|n
u|f
u| 
u| 
u| 

u|im
u|t 
u|ec
u|  
u|  
u|ca

u|e on =this=20 
u|plays  the    
u|t =behind     
u|              
u|              
u|rries         

   **   ^                 ** ** ** 
** *** ** ** ** * over to the first 
= 0's
        let ring


  (1:01-1:05) Fill between Verse

eb|------------------------------
Bb|------------------------------
Gb|---5/7-----/7-/7-/7-/7-/7-----
Db|---0-0------0--0--0--0--0-----
Ab|---3/5-----/5-/5-/5-/5-/5-----
Db|00------00-----------------00-
   **      **                 ** 

e|---------------|   
B|---------------|   
G|/9-/9-/9-/9-/9-|1x 
D|-0--0--0--0--0-|   
A|/7-/7-/7-/7-/7-|   
D|---------------|   
                   



  (1:06-1:15) Verse

eb|-----------------------------
Bb|-----------------------------
Gb|-----3:--------/5-5----------
Db|---0-1:--------/3-3-0--------
Ab|---0-1:--------/3-3-0--------
Db|00-0-1:--------/3-3-0--00-00-
   **   ^                 ** ** 

e|--------------------|   
B|--------------------|   
G|--------------------|1x 
D|--------------------|   
A|--------------------|   
D|00-00-000-00-00-00-0|   
** ** *** ** ** ** *    

        let ring


  (1:15-1:24) Pre-Chorus

eb|-------------------------------
Bb|---------------------------3:--
Gb|-----3:--------/5-5--------2:--
Db|---0-1:--------/3-3-0:-----0:--
Ab|---0-1:--------/3-3-0:-----0:--
Db|00-0-1:--------/3-3-0:-----0:--
   **   ^              ^      ^   

e|-----------|   
B|-----------|   
G|-------5/7-|1x 
D|-------0-0-|   
A|-------3/5-|   
D|----00-----|   
    **         

        let ring      let ring

(1:24-1:41) Chorus eb|-------------------------| Bb|-------------------------| Gb|---7-7-7-7-7-7-7-7----5/7| Db|---0-0-0-0-0-0-0-0----0-0| Ab|---5-5-5-5-5-5-5-5----3/5| Db|00-----------------00----| ** ** eb|--------------------------| Bb|--------------------------| Gb|---7-7-7-7-7-7-7-7----9/10| Db|---0-0-0-0-0-0-0-0----7/8-| Ab|---5-5-5-5-5-5-5-5----7/8-| Db|00-----------------00-7/8-| ** ** eb|------------------------------- Bb|------------------------------- Gb|---10--10--10---5/7----7---7--- Db|---8---8---8----3/5----5---5--- Ab|---8---8---8----3/5----5---5--- Db|88-8-8-8-8-8-00-3/5-55-5-5-5-5- ** * * ** ** * * e|--------| B|--------| G|7----5/7|2x D|5----0-0| A|5----3/5| D|5-00----| ** (1:42-1:46) Post-Chorus eb|------------------------------- Bb|------------------------------- Gb|---/7-/7-/7-/7-/7-----/9-/9-/9- Db|----0--0--0--0--0------0--0--0- Ab|---/5-/5-/5-/5-/5-----/7-/7-/7- Db|00-----------------00---------- ** ** e|------| B|------| G|/9-/9-|1x D|-0--0-| A|/7-/7-| D|------| (1:47-2:13) Verse eb|----------------------------- Bb|----------------------------- Gb|-----3:--------/5-5---------- Db|---0-1:--------/3-3-0-------- Ab|---0-1:--------/3-3-0-------- Db|00-0-1:--------/3-3-0--00-00- e|--------------------| B|--------------------| G|--------------------|4x D|--------------------| A|--------------------| D|00-00-000-00-00-00-0|this last 0 carries ** ^ ** ** ** ** *** ** ** ** * over to the first = 0's let ring (2:13-2:22) Pre-Chorus eb|------------------------------- Bb|---------------------------3:-- Gb|-----3:--------/5-5--------2:-- Db|---0-1:--------/3-3-0:-----0:-- Ab|---0-1:--------/3-3-0:-----0:-- Db|00-0-1:--------/3-3-0:-----0:-- ** ^ ^ ^ e|-----------| B|-----------| G|-------5/7-|1x D|-------0-0-| A|-------3/5-| D|----00-----| ** let ring let ring (2:22-2:39) Chorus eb|-------------------------| Bb|-------------------------| Gb|---7-7-7-7-7-7-7-7----5/7| Db|---0-0-0-0-0-0-0-0----0-0| Ab|---5-5-5-5-5-5-5-5----3/5| Db|00-----------------00----| ** ** eb|--------------------------| Bb|--------------------------| Gb|---7-7-7-7-7-7-7-7----9/10| Db|---0-0-0-0-0-0-0-0----7/8-| Ab|---5-5-5-5-5-5-5-5----7/8-| Db|00-----------------00-7/8-| ** ** eb|------------------------------- Bb|------------------------------- Gb|---10--10--10---5/7----7---7--- Db|---8---8---8----3/5----5---5--- Ab|---8---8---8----3/5----5---5--- Db|88-8-8-8-8-8-00-3/5-55-5-5-5-5- ** * * ** ** * * e|--------| B|--------| G|7----5/7|2x D|5----0-0| A|5----3/5| D|5-00----| ** eb|-------------------------| Bb|-------------------------| Gb|---7-7-7-7-7-7-7-7----5/7|3x Db|---0-0-0-0-0-0-0-0----0-0| Ab|---5-5-5-5-5-5-5-5----3/5| Db|00-----------------00----| ** ** eb|--------------------------| Bb|--------------------------| Gb|---7-7-7-7-7-7-7-7-7-7-7-7|3x Db|---0-0-0-0-0-0-0-0-0-0-0-0| Ab|---5-5-5-5-5-5-5-5-5-5-5-5| Db|00------------------------| ** (2:49-3:09) SOLO TIME: with wah eb|------------------------------- Bb|------------------------------- Gb|------------------------------- Db|----12-(12)10/12--10----12----- Ab|------------------------------- Db|00----------------------------- ** e|---------------------------------- B|---------------------------------- G|---------------------------------- D|-0-0-12-(12)10/12----------8------ A|---------------------------------- D|---------------------10----------- eb|----------------------------- Bb|----------------------------- Gb|x-x-----------x-x------------ Db|x-x-----------x-x-------10--- Ab|-----8----10------10/12------ Db|----------------------------- e|-------------------------------- B|-------------------------------- G|------------x-x-10---12--10-12b- D|10----12----x-x----------------- A|-------------------------------- D|-------------------------------- --------|= --------|= 13b12b12|= --------|= --------|= --------|= eb|------------------------------ Bb|------------13---------------- Gb|10-12--12b-----12b----(12)-10- Db|------------------------------ Ab|------------------------------ Db|------------------------------ e|---------------8---------8---- B|-----------------6-8/10----10- G|12----1210-------------------- D|------------12---------------- A|------------------------------ D|------------------------------ ------10-|= 10/13----|= --------|= ---------|= ---------|= ---------|= eb|----------------------------- Bb|10/1310--13b---13------------ Gb|-------------------12---12b-- Db|----------------------------- Ab|----------------------------- Db|----------------------------- e|----------------------------------------|= B|-------------------------------13b--13b|= G|(12)10----10--12--12b--(12)-10---------|= D|--------12------------------------------|= A|----------------------------------------|= D|----------------------------------------|= (3:06-3:33) Chorus eb|-------------------------| Bb|-------------------------| Gb|---7-7-7-7-7-7-7-7----5/7| Db|---0-0-0-0-0-0-0-0----0-0| Ab|---5-5-5-5-5-5-5-5----3/5| Db|00-----------------00----| ** ** e| B|Chorus stars during the=20 G|end of the solo; D|13b is kept bent during A|beginning of the chorus D| eb|--------------------------| Bb|--------------------------| Gb|---7-7-7-7-7-7-7-7----9/10| Db|---0-0-0-0-0-0-0-0----7/8-| Ab|---5-5-5-5-5-5-5-5----7/8-| Db|00-----------------00-7/8-| ** ** eb|------------------------------- Bb|------------------------------- Gb|---10--10--10---5/7----7---7--- Db|---8---8---8----3/5----5---5--- Ab|---8---8---8----3/5----5---5--- Db|88-8-8-8-8-8-00-3/5-55-5-5-5-5- ** * * ** ** * * e|--------| B|--------| G|7----5/7|2x D|5----0-0| A|5----3/5| D|5-00----| ** (3:33-3:50) 4x 2x 2x eb|------------------|------------ Bb|------------------|------------ Gb|---/7-/7-/7-/7-/7-|---/9-/9-/9- Db|----0--0--0--0--0-|----0--0--0- Ab|---/5-/5-/5-/5-/5-|---/7-/7-/7- Db|00----------------|00---------- ** ** e|------|-----------------------| B|------|-----------------------| G|/9-/9-|---/11-/11-/11-/11-/11-| D|-0--0-|----0---0---0--/0---0--| A|/7-/7-|---/9--/9--/9--/9--/9--| D|------|00---------------------| ** eb|------| Bb|------|1x Gb|------| Db|------| Ab|------| Db|2-1-0-| * * * (3:51-4:08) Outro eb|-----------------| Bb|-----------------| repeat Gb|---------------7-|?x of the Db|---------------0-| Ab|---------------5-| Db|000-00-00-00-0---| *** ** ** ** * e| B|alot and Fade with some G|intro effect in the background D| A| D|
Composición: M. RoseColaboración y revisión: