B
234
X24442
C
123
X32010
Cm
234
X35543
G
123
320003
Tono: G
[Intro] G  B  C  Cm

#1t1#   G
#1t2#E|------------------------------------------|
B|---------------3----------3---------------|
G|-----4----4------4---4------4-------------|
D|---5---5-----5-----5----------------------|
A|------------------------------------------|
E|-3----------------------3-----------------|#/1t2##/1t1#

#2t1#   B
#2t2#E|------------------------------------------|
B|------------------------------------------|
G|-----8-----8-----9-----8----8-------------|
D|---9---9------9----9------9---9-----------|
A|------------------------------------------|
E|-7-------7-----------7--------------------|#/2t2##/2t1#

#3t1#   C
#3t2#E|------------------------------------------|
B|------------------------------------------|
G|------9------9------10------9-----9-------|
D|---10---10------10-----10------10---10----|
A|------------------------------------------|
E|-8---------8--------------8---------------|#/3t2##/3t1#

#4t1#   Cm
#4t2#E|------------------------------------------|
B|------------------------------------------|
G|---8------8-----------8-------8-----------|
D|-----10-----10---10-----10------10--------|
A|-----------------------------------10-----|
E|-8------8------8----8------8--------------|#/4t2##/4t1#

[Primeira Estrofe]

#5t1#   G
#5t2#E|------------------------------------------|
B|------------------------------------------|
G|----------------4--------4----------------|
D|-----5----5-------5---5----5--------------|
A|---5---5-----5------5---------------------|
E|-3----------------------------------------|#/5t2##/5t1#

#6t1#   B
#6t2#E|------------------------------------------|
B|------------------------------------------|
G|----------------8-----------8-------------|
D|-----9----9-------9---9-------9-----------|
A|---9---9-----9------9-----9---------------|
E|-7----------------------7-----------------|#/6t2##/6t1#

#7t1#   C
#7t2#E|------------------------------------------|
B|------------------------------------------|
G|---------------9-------9--------------9---|
D|------10----10---10------10----10-------10|
A|---10----10---------10------10-----10-----|
E|-8----------------------------------------|#/7t2##/7t1#

#8t1#   Cm
#8t2#E|------------------------------------------|
B|------------------------------------------|
G|------------8----------8-----------8------|
D|------10------10----10---10----10----10---|
A|---10----10------10---------10----------10|
E|-8----------------------------------------|#/8t2##/8t1#

                      G
When you were here before
                         B
Couldn't look you in the eye
                    C
You're just like an angel
                     Cm
Your skin makes me cry

[Segunda Estrofe]

#9t1#  G
#9t2#E|----------------3--------3----------------|
B|----------------3--------3----------------|
G|-----4----4-------4---4----4--------------|
D|---5---5-----5------5---------------------|
A|------------------------------------------|
E|-3----------------------------------------|#/9t2##/9t1#

#10t1#   B
#10t2#E|-----------------7----------7-------------|
B|-----------7---7---7---7------7-----------|
G|-----8---8---8-------8--------------------|
D|---9---9------------------9---------------|
A|------------------------------------------|
E|-7----------------------------------------|#/10t2##/10t1#

#11t1#   C
#11t2#E|------------------8---------8-------------|
B|-------------8----8-----------8-----------|
G|------9----9----9---9----9------9---------|
D|---10---10------------10------------------|
A|------------------------------------------|
E|-8----------------------------------------|#/11t2##/11t1#

#12t1#   Cm
#12t2#E|------------------------------------------|
B|------------8------8---------8------------|
G|------8-------8------8----8----8----------|
D|---10---10------10-----10--------10-------|
A|------------------------------------------|
E|-8----------------------------------------|#/12t2##/12t1#

                  G
You float like a feather
                B
In a beautiful world
               C
I wish I was special
                    Cm
You're so fucking special

[Primeiro Refrão]

(Guitarra Solo)

#13t1##13t2#E|------------------------------------------|
B|------------------------------------------|
G|-4----8----5...--7...--8...--10~~/12------|
D|-5----9-----------------------------------|
A|-5----9----3...--5...--6...---8~~/10------|
E|-3----7-----------------------------------|#/13t2##/13t1#

            G
But I'm a creep
       B
I'm a weirdo
                          C
What the hell am I doing here?
           Cm
I don't belong here

[Terceira Estrofe]

#14t1#   G
#14t2#E|------------------------------------------|
B|------------------------------------------|
G|---------------4---------4----------------|
D|-----5----5------5---5-----5--------------|
A|---5----5----5-----5----------------------|
E|-3----------------------------------------|#/14t2##/14t1#

#15t1#   B
#15t2#E|------------------------------------------|
B|------------------------------------------|
G|---------------8----------8---------------|
D|-----9----9------9---9------9-------------|
A|---9----9----9-----9----------------------|
E|-7----------------------7-----------------|#/15t2##/15t1#

#16t1#   C
#16t2#E|------------------------------------------|
B|------------------------------------------|
G|--------------------9-------------9-------|
D|------10-----10-------10----10------10----|
A|---10-----10-----10------10---------------|
E|-8------------------------------8---------|#/16t2##/16t1#

#17t1#   Cm
#17t2#E|------------------------------------------|
B|------------------------------------------|
G|------------8---------------------8-------|
D|------10------10----10------10------10----|
A|---10----10------10------10----10------10-|
E|-8---------------------8------------------|#/17t2##/17t1#

                    G
I don't care if it hurts
                  B
I wanna have control
                   C
I wanna a perfect body
                   Cm
I wanna a perfect soul

[Quarta Estrofe]

#18t1#   G
#18t2#E|----------------3-------------------------|
B|----------------3-------------------------|
G|-----------4------4---4----4--------------|
D|-----5---5----5-----5--------5------------|
A|---5---5----------------------------------|
E|-3-----------------------3----------------|#/18t2##/18t1#

#19t1#   B
#19t2#E|---------------7--------------------------|
B|-----------------7------------------------|
G|-----8----8--------8----8-----------------|
D|---9----9----9-------9----9---------------|
A|----------------------------9-------------|
E|-7----------------------------------------|#/19t2##/19t1#

#20t1#   C
#20t2#E|------------------8-----------------------|
B|--------------------8---------------------|
G|------9-----9---------9-----9-------------|
D|---10----10----10-------10----10----------|
A|---------------------------------10-------|
E|-8----------------------------------------|#/20t2##/20t1#

#21t1#   Cm
#21t2#E|------------------------------------------|
B|---8-----------------8--------------------|
G|-----8----8------------8----8----8--------|
D|-------10---10----10-----10--------10-----|
A|---------------10-------------------------|
E|-8-----------------------------8----------|#/21t2##/21t1#

               G
I want you to notice
               B
When I'm not around
                    C
You're so fucking special
               Cm
I wish I was special

[Segundo Refrão]

(Guitarra Solo)

#22t1##22t2#E|------------------------------------------|
B|------------------------------------------|
G|-4----8----5...--7...--8...--10...--------|
D|-5----9-----------------------------------|
A|-5----9----3...--5...--6...--8-...--------|
E|-3----7-----------------------------------|#/22t2##/22t1#

            G
But I'm a creep
       B
I'm a weirdo
                          C
What the hell am I doing here?
            Cm
I don't belong here

[Interlúdio]

(Guitarra Solo)

#23t1##23t2#E|------------------------------------------|
B|------------------------------------------|
G|-12...-8...-11...-9...-12...-8...-17...---|
D|------------------------------------------|
A|-10...-6...-9-...-7...-10...-6...-15...---|
E|------------------------------------------|#/23t2##/23t1#

#24t1##24t2#E|------------------------------------------|
B|------------------------------------------|
G|-16...12...11...14...12...9...8~~\5~~\4---|
D|------------------------------------------|
A|-14...10...9-...12...10...7...6~~\3~~\2---|
E|------------------------------------------|#/24t2##/24t1#

  G                        B
She's running out the door
  C
She's running out
     Cm                G  B
She run, run, run, run
 C  Cm
Run

[Quinta Estrofe]

#25t1#   G
#25t2#E|------------------------------------------|
B|------------------------------------------|
G|-----------4--------------4---------------|
D|-----5---5----5-----5---5----5------------|
A|---5---5--------5-----5-------------------|
E|-3----------------3-----------------------|#/25t2##/25t1#

#26t1#   B
#26t2#E|------------------------------------------|
B|------------------------------------------|
G|-----------8--------------8---------------|
D|-----9---9----9-----9---9----9------------|
A|---9---9--------9-----9-------------------|
E|-7----------------7-----------------------|#/26t2##/26t1#

#27t1#   C
#27t2#E|------------------------------------------|
B|------------------------------------------|
G|---------------9-------------------9------|
D|------10----10----10------10----10----10--|
A|---10----10----------10------10-----------|
E|-8----------------------8-----------------|#/27t2##/27t1#

#28t1#   Cm
#28t2#E|------------------------------------------|
B|------------------------------------------|
G|---------------8-------------------8------|
D|------10----10----10------10----10--------|
A|---10----10----------10------10-----------|
E|-8----------------------8-----------------|#/28t2##/28t1#

                    G
Whatever makes you happy
              B
Whatever you want
             C
So fucking special
               Cm
I wish I was special

[Terceiro Refrão]

#29t1#   G
#29t2#E|----------------3--------3----------------|
B|------------------3------3----------------|
G|-----4----4-4-------4------4--------------|
D|---5---5------5-------5------5------------|
A|------------------------------------------|
E|-3----------------------------------------|#/29t2##/29t1#

#30t1#   B
#30t2#E|----------------7-------------------------|
B|-----------7----7-------------------------|
G|-----8---8----8---8---8----8--------------|
D|---9---9------------9--------9------------|
A|------------------------------------------|
E|-7-----------------------7----------------|#/30t2##/30t1#

#31t1#   C
#31t2#E|------------------8-----------------------|
B|-----8------------8-8---8-----8-----------|
G|---9---8----9---------9---------9---------|
D|---------10----10----------10-------------|
A|------------------------------------------|
E|-8----------------------------------------|#/31t2##/31t1#

#32t1#   Cm
#32t2#E|------------------------------------------|
B|------------------------------------------|
G|-8----------------------------------------|
D|-10---------------------------------------|
A|-10---------------------------------------|
E|-8----------------------------------------|#/32t2##/32t1#

            G
But I'm a creep
       B
I'm a weirdo
                          C
What the hell am I doing here?
           Cm
I don't belong here
           G
I don't belong here
Composición: Albert Hammond / Mike Hazlewood / RadioheadColaboración y revisión: Vinícius DiasBreno José Fuzabruno
videoclase Creep - Radiohead (aula de guitarra)