B
234
X24442
C
123
X32010
Cm
234
X35543
G
123
320003
Tono: G
[Intro] G  B  C  Cm


   G
E|--------------------------------
B|---------------3----------3-----
G|-----4----4------4---4------4---
D|---5---5-----5-----5------------
A|--------------------------------
E|-3----------------------3-------



   B
E|--------------------------------
B|--------------------------------
G|-----8-----8-----9-----8----8---
D|---9---9------9----9------9---9-
A|--------------------------------
E|-7-------7-----------7----------



   C
E|-------------------------------
B|-------------------------------
G|------9------9------10------9--
D|---10---10------10-----10------
A|-------------------------------
E|-8---------8--------------8----

E|-----------| 
B|-----------| 
G|---9-------| 
D|10---10----| 
A|-----------| 
E|-----------| 



   Cm
E|--------------------------------
B|--------------------------------
G|---8------8-----------8-------8-
D|-----10-----10---10-----10------
A|--------------------------------
E|-8------8------8----8------8----

E|----------| 
B|----------| 
G|----------| 
D|10--------| 
A|---10-----| 
E|----------| 


[Primeira Estrofe]


   G
E|--------------------------------
B|--------------------------------
G|----------------4--------4------
D|-----5----5-------5---5----5----
A|---5---5-----5------5-----------
E|-3------------------------------



   B
E|--------------------------------
B|--------------------------------
G|----------------8-----------8---
D|-----9----9-------9---9-------9-
A|---9---9-----9------9-----9-----
E|-7----------------------7-------



   C
E|-------------------------------
B|-------------------------------
G|---------------9-------9-------
D|------10----10---10------10----
A|---10----10---------10------10-
E|-8-----------------------------

E|-----------| 
B|-----------| 
G|-------9---| 
D|10-------10| 
A|----10-----| 
E|-----------| 



   Cm
E|-------------------------------
B|-------------------------------
G|------------8----------8-------
D|------10------10----10---10----
A|---10----10------10---------10-
E|-8-----------------------------

E|-----------| 
B|-----------| 
G|----8------| 
D|10----10---| 
A|---------10| 
E|-----------| 


                      G
When you were here before
                         B
Couldn't look you in the eye
                    C
You're just like an angel
                     Cm
Your skin makes me cry

[Segunda Estrofe]


  G
E|----------------3--------3------
B|----------------3--------3------
G|-----4----4-------4---4----4----
D|---5---5-----5------5-----------
A|--------------------------------
E|-3------------------------------



   B
E|-----------------7----------7---
B|-----------7---7---7---7------7-
G|-----8---8---8-------8----------
D|---9---9------------------9-----
A|--------------------------------
E|-7------------------------------



   C
E|------------------8---------8---
B|-------------8----8-----------8-
G|------9----9----9---9----9------
D|---10---10------------10--------
A|--------------------------------
E|-8------------------------------

E|----------| 
B|----------| 
G|9---------| 
D|----------| 
A|----------| 
E|----------| 



   Cm
E|-------------------------------
B|------------8------8---------8-
G|------8-------8------8----8----
D|---10---10------10-----10------
A|-------------------------------
E|-8-----------------------------

E|-----------| 
B|-----------| 
G|8----------| 
D|--10-------| 
A|-----------| 
E|-----------| 


                  G
You float like a feather
                B
In a beautiful world
               C
I wish I was special
                    Cm
You're so fucking special

[Primeiro Refrão]

(Guitarra Solo)


E|-----------------------------
B|-----------------------------
G|-4----8----5...--7...--8...--
D|-5----9----------------------
A|-5----9----3...--5...--6...--
E|-3----7----------------------

E|-
B|-
G|1
D|-
A|-
E|-

E|------------| 
B|------------| 
G|0~~/12------| 
D|------------| 
A|8~~/10------| 
E|------------| 


            G
But I'm a creep
       B
I'm a weirdo
C What the hell am I doing here? Cm I don't belong here [Terceira Estrofe] G E|-------------------------------- B|-------------------------------- G|---------------4---------4------ D|-----5----5------5---5-----5---- A|---5----5----5-----5------------ E|-3------------------------------ B E|-------------------------------- B|-------------------------------- G|---------------8----------8----- D|-----9----9------9---9------9--- A|---9----9----9-----9------------ E|-7----------------------7------- C E|-------------------------------- B|-------------------------------- G|--------------------9----------- D|------10-----10-------10----10-- A|---10-----10-----10------10----- E|-8------------------------------ E|----------| B|----------| G|--9-------| D|----10----| A|----------| E|8---------| Cm E|------------------------------- B|------------------------------- G|------------8------------------ D|------10------10----10------10- A|---10----10------10------10---- E|-8---------------------8------- E|-----------| B|-----------| G|---8-------| D|-----10----| A|10------10-| E|-----------| G I don't care if it hurts B I wanna have control C I wanna a perfect body Cm I wanna a perfect soul [Quarta Estrofe] G E|----------------3--------------- B|----------------3--------------- G|-----------4------4---4----4---- D|-----5---5----5-----5--------5-- A|---5---5------------------------ E|-3-----------------------3------ B E|---------------7---------------- B|-----------------7-------------- G|-----8----8--------8----8------- D|---9----9----9-------9----9----- A|----------------------------9--- E|-7------------------------------ C E|------------------8----------- B|--------------------8--------- G|------9-----9---------9-----9- D|---10----10----10-------10---- A|------------------------------ E|-8---------------------------- E|------------| B|------------| G|------------| D|10----------| A|---10-------| E|------------| Cm E|------------------------------- B|---8-----------------8--------- G|-----8----8------------8----8-- D|-------10---10----10-----10---- A|---------------10-------------- E|-8----------------------------- E|-----------| B|-----------| G|--8--------| D|----10-----| A|-----------| E|8----------| G I want you to notice B When I'm not around C You're so fucking special Cm I wish I was special [Segundo Refrão] (Guitarra Solo) E|----------------------------- B|----------------------------- G|-4----8----5...--7...--8...-- D|-5----9---------------------- A|-5----9----3...--5...--6...-- E|-3----7---------------------- E|-- B|-- G|10 D|-- A|8- E|-- E|-----------| B|-----------| G|...--------| D|-----------| A|...--------| E|-----------| G But I'm a creep B I'm a weirdo C What the hell am I doing here? Cm I don't belong here [Interlúdio] (Guitarra Solo) E|----------------------------- B|----------------------------- G|-12...-8...-11...-9...-12...- D|----------------------------- A|-10...-6...-9-...-7...-10...- E|----------------------------- E|-------------| B|-------------| G|8...-17...---| D|-------------| A|6...-15...---| E|-------------| E|------------ B|------------ G|16...12...11 D|------------ A|14...10...9- E|------------ E|-----------------------------| B|-----------------------------| G|...14...12...9...8~~\5~~\4---| D|-----------------------------| A|...12...10...7...6~~\3~~\2---| E|-----------------------------| G B She's running out the door C She's running out Cm G B She run, run, run, run C Cm Run [Quinta Estrofe] G E|-------------------------------- B|-------------------------------- G|-----------4--------------4----- D|-----5---5----5-----5---5----5-- A|---5---5--------5-----5--------- E|-3----------------3------------- B E|-------------------------------- B|-------------------------------- G|-----------8--------------8----- D|-----9---9----9-----9---9----9-- A|---9---9--------9-----9--------- E|-7----------------7------------- C E|-------------------------------- B|-------------------------------- G|---------------9---------------- D|------10----10----10------10---- A|---10----10----------10------10- E|-8----------------------8------- E|----------| B|----------| G|---9------| D|10----10--| A|----------| E|----------| Cm E|-------------------------------- B|-------------------------------- G|---------------8---------------- D|------10----10----10------10---- A|---10----10----------10------10- E|-8----------------------8------- E|----------| B|----------| G|---8------| D|10--------| A|----------| E|----------| G Whatever makes you happy B Whatever you want C So fucking special Cm I wish I was special [Terceiro Refrão] G E|----------------3--------3------ B|------------------3------3------ G|-----4----4-4-------4------4---- D|---5---5------5-------5------5-- A|-------------------------------- E|-3------------------------------ B E|----------------7--------------- B|-----------7----7--------------- G|-----8---8----8---8---8----8---- D|---9---9------------9--------9-- A|-------------------------------- E|-7-----------------------7------ C E|------------------8------------- B|-----8------------8-8---8-----8- G|---9---8----9---------9--------- D|---------10----10----------10--- A|-------------------------------- E|-8------------------------------ E|----------| B|----------| G|9---------| D|----------| A|----------| E|----------| Cm E|-------------------------------- B|-------------------------------- G|-8------------------------------ D|-10----------------------------- A|-10----------------------------- E|-8------------------------------ G But I'm a creep B I'm a weirdo C What the hell am I doing here? Cm I don't belong here G I don't belong here
Composición: Albert Hammond / Mike Hazlewood / RadioheadColaboración y revisión: Vinícius DiasBreno José Fuzabruno
videoclase Creep - Radiohead (aula de guitarra)