Desconstruindo Amélia

Pitty

Am
123
X02210
C
123
X32010
E
123
022100
F
234
133211
Tono: G
#1t1#[Riff 1]
#1t2#E |----------------------|--------------------------|
B |----------------------|--------------------------|
G |----------------------|--------------------------| (Adaptado do baixo)
D |------------0---0-2---|--------------------------|
A |-0---0-3-0----3-------|-0---0-3-0----------------|
E |----------------------|------------3-0-3-0---0-3-|#/1t2##/1t1#
Já é tarde, tudo está certo ... Sempre a última a sair

#2t1#[Riff 2]
#2t2#E |--------------------------|
B |-1-------5--3--5---6--5---|
G |---2----------------------|
D |-----2--------------------| (Junto com o riff 1)
A |--------------------------|
E |--------------------------|#/2t2##/2t1#
A despeito de tanto mestrado ... Ainda vai pra "night” ferver

#3t1#[Intro]
#3t2#E |----------------------|--------------------------|
B |----------------------|--------------------------|
G |----------------------|--------------------------|  (Adaptado do baixo)
D |------------0---0-2---|--------------------------|
A |-0---0-3-0----3-------|-0---0-3-0----------------|
E |----------------------|------------3-0-3-0---0-3-|#/3t2##/3t1#

#4t1##4t2#E |----------------------|-----------------------------|
B |----------------------|-----------------------------|
G |----------------------|-2--0------------------------|
D |------------0---0-2---|-------2--0----2-0-----------|
A |-0---0-3-0----3-------|-------------3-----3-0-------|
E |----------------------|-------------------------0-3-|#/4t2##/4t1#

[Riff 1]
Já é tarde, tudo está certo
Cada coisa posta em seu lugar
Filho dorme, ela arruma o uniforme
Tudo pronto pra quando despertar

#5t1##5t2#E |---|
B |---|
G |-2-| Até o refrão
D |---| (Junto com o riff 1)
A |---|
E |---|#/5t2##/5t1#

O ensejo a fez tão prendada
Ela foi educada pra cuidar e servir
De costume esquecia-se dela
Sempre a última a sair

Am          C
Disfarça e segue em frente
      F          E
Todo dia até cansar
Am         C
E eis que de repente
       F            E
Ela resolve então mudar

Am             C
Vira a mesa, assume o jogo
         F            E
Faz questão de se cuidar
Am          C
Nem serva, nem objeto

        F
Já não quer ser o outro
E
Hoje ela é um também

#6t1#[Passagem]
#6t2#E |--------------------------|
B |-1-------5--3--5---6--5---|
G |---2----------------------|
D |-----2--------------------|
A |--------------------------|
E |--------------------------|#/6t2##/6t1#

#7t1##7t2#E |------------------------------5----------|
B |-1-------5--3------5------------5--------|
G |---2-------------5---7---5---5----7\2----|
D |-----2---------------------7-------------|
A |-----------------------------------------|
E |-----------------------------------------|#/7t2##/7t1#

[Riff 2]
A despeito de tanto mestrado
Ganha menos que o namorado e não entende o porquê
Tem talento de equilibrista
Ela é muitas se você quer saber

Hoje aos trinta é melhor que aos dezoito
Nem Balzac poderia prever
Depois do lar, do trabalho e dos filhos
Ainda vai pra "night” ferver

Am          C
Disfarça e segue em frente
      F          E
Todo dia até cansar
Am         C
E eis que de repente
       F            E
Ela resolve então mudar

Am             C
Vira a mesa, assume o jogo
         F            E
Faz questão de se cuidar
Am          C
Nem serva, nem objeto

        F
Já não quer ser o outro
E
Hoje ela é um também

#8t1#[Solo]
#8t2#E |-------------------------|
B |-------------------------|
G |-------2-0---------------|  (repete 3 vezes)
D |-----------2-2-0---0-0-2-|
A |--0-0------------3-------|
E |-------------------------|#/8t2##/8t1#

#9t1##9t2#E |--------------|
B |--------------|
G |--------------|
D |--------------|
A |--------------|
E |--3-3---3-3---|#/9t2##/9t1#

#10t1##10t2#E |-------------------------|
B |-------------------------|
G |-------2-0---------------|  (repete 3 vezes)
D |-----------2-2-0---0-0-2-|
A |--0-0------------3-------|
E |-------------------------|#/10t2##/10t1#

#11t1##11t2#E |--------------|
B |--------------|
G |--------------|
D |--------------|
A |--------------|
E |--3-3---3-3---|#/11t2##/11t1#

#12t1##12t2#E |-------------------------|
B |-------------------------|
G |-------2-0---------------|  (repete 3 vezes)
D |-----------2-2-0---0-0-2-|
A |--0-0------------3-------|
E |-------------------------|#/12t2##/12t1#

#13t1##13t2#E |-----------------------------|
B |-----------------------------|
G |-----------------------------|
D |-----------------------------|
A |-----------------------------|
E |--3-3-3-3-3-3-4-4-4-4-4-4-5--|#/13t2##/13t1#

Am          C
Disfarça e segue em frente
      F          E
Todo dia até cansar
Am         C
E eis que de repente
       F            E
Ela resolve então mudar

Am             C
Vira a mesa, assume o jogo
         F            E
Faz questão de se cuidar
Am          C
Nem serva, nem objeto

        F
Já não quer ser o outro
E
Hoje ela é um também

#14t1#[Outro]
#14t2#E |----------------------|----------------------|
B |----------------------|----------------------|
G |----------------------|----------------------|
D |------------0---0-2---|----------------------|
A |-0---0-3-0----4-------|-0---0-3-0------------|
E |----------------------|------------0-3-4-5---|#/14t2##/14t1#

#15t1##15t2#E |-5~--|
B |-5~--|
G |-5~--|
D |-7~--|
A |-7~--|
E |-5~--|#/15t2##/15t1#
Composición: PittyColaboración y revisión: Pedro Dupim