Dançando

Pitty

A
123
X02220
D
123
XX0232
E
123
022100
F#m
34
244222
Tono: G
[Intro]

#1t1#      A                           F#m
#1t2#E|-----------0---------------------------0--------0----|
B|------0h2-----------0h2-----------0h2--------------2-|
G|---2-------------2-------2-----2-------------2-------|
D|-----------------------------------------------------|
A|-0--0-----0----0--0-----0----------------------------|
E|-----------------------------2--2-----2----2--2------|#/1t2##/1t1#

#2t1#      D                           E
#2t2#E|-----------0-----------------------------------------|
B|------0h2-----------0h2-----------0h2-----------2----|
G|---2-------------2-------2-----2-------2-----1-----1-|
D|-0--0-----0----0--0-----0----------------------------|
A|-----------------------------------------------------|
E|-----------------------------0--0-----0----0--0------|#/2t2##/2t1#

A
 Eu sei que lá no fundo
F#m
   Há tanta beleza no mundo
D                  E
Eu só queria enxergar
A
 As tardes de domingo
F#m
O dia me sorrindo
D                  E
Eu só queria enxergar
F#m                      E
   Qualquer coisa pra domar o peito em fogo
F#m                 E
   Algo pra justificar uma vida morna

   A
O mundo acaba hoje eu estarei dançando
   F#m
O mundo acaba hoje eu estarei dançando
   D                                        F#m        E
O mundo acaba hoje eu estarei dançando com você  hmmmm

   A
O mundo acaba hoje eu estarei dançando
   F#m
O mundo acaba hoje eu estarei dançando
   D                                        F#m      E   F#m  D   E  A
O mundo acaba hoje eu estarei dançando com você    hmmmm        hmmmm

A
  Não esqueço aquela esquina
F#m
   A graça da menina
D                  E
Eu só queria enxergar
A
 Por isso eu me entrego
F#m
A um imediatismo cego
  D                  E
Pronta pro mundo acabar

F#m                  E
   Você acredita no depois ?
    E
Prefiro o agora
F#m                         E
   Se no fim formos só nós dois, que seja lá fora

   A
O mundo acaba hoje eu estarei dançando
   F#m
O mundo acaba hoje eu estarei dançando
   D                                        F#m        E
O mundo acaba hoje eu estarei dançando com você  hmmmm

   A
O mundo acaba hoje eu estarei dançando
   F#m
O mundo acaba hoje eu estarei dançando
   D                                        F#m         E  F#m       D  E  A
O mundo acaba hoje eu estarei dançando com você  hmmmm         hmmmm

[Pré-refrão]

#3t1#      F#m                    E
#3t2#E|------2-----------2-----------2-----------2-------|
B|------2-----------2-----------2-----------2-------|
G|---2-----2--2--2-----2--2--2-----2--2--2-----2--2-|
D|--------------------------------------------------|
A|--------------------------------------------------|
E|-2--2-----2--2--2-----2--0--0-----0--0--0-----0---|#/3t2##/3t1#

[Refrão]

#4t1#      A                           F#m
#4t2#E|-----------0---------------------------0---------------|
B|------0h2-----------0h2-----------0h2------------0h2---|
G|---2-------------2-------2-----2-------------2--------2|
D|-------------------------------------------------------|
A|-0--0-----0----0--0-----0------------------------------|
E|-----------------------------2--2-----2----2--2------2-|#/4t2##/4t1#

#5t1#      D                           E
#5t2#E|-----------0-----------------------------------------|
B|------0h2-----------0h2-----------0h2-----------2----|
G|---2-------------2-------2-----2-------2-----1-----1-|
D|-0--0-----0----0--0-----0----------------------------|
A|-----------------------------------------------------|
E|-----------------------------0--0-----0----0--0------|#/5t2##/5t1#

[Pós-refrão]

#6t1#      F#m                    D       E
#6t2#E|------------------------------------------------|
B|------2-----------2-----------2----------2------|
G|---2-----2--2--2-----2--2--2----2--2--2----2--2-|
D|-------------------------0--0----0--------------|
A|------------------------------------------------|
E|-2--2-----2--2--2-----2-------------0--0----0---|#/6t2##/6t1#

#7t1#      A
#7t2#E|----------------------------------------------------|
B|------0h2----------0h2----------0h2----------0h2----|
G|---2-------2----2-------2----2-------2----2-------2-|
D|----------------------------------------------------|
A|-0--0-----0---0--0-----0---0--0-----0---0--0-----0--|
E|----------------------------------------------------|#/7t2##/7t1#
Composición: Martin Mendezz / PittyColaboración y revisión: Gabriel GonçalvesMarcos PauloEstevão DenardiAlessandro Oliveiray más 5