Máscara

Pitty

Ab5
134
466XXX
Bb5(9)
34
X13311
D5
134
X577XX
Dm
123
XX0231
Eb5
134
X688XX
F5
134
133XXX
G5
134
355XXX
Tono: G
Afinação Drop-D: D A D G B E

[Intro] D5  F5  D5  Ab5
        D5  F5  D5  Eb5
        D5  F5  D5  Ab5
        D5  F5  D5  Eb5

#1t1#   D5      F5           D5     Ab5
#1t2#E|-----------------------------------------------------|
B|-----------------------------------------------------|
G|-----------------------------------------------------|
D|-0--0--0-3--0-5/6-5-3-0--0--/6--6-6--6--6------------|
A|-0--0--0-3--0-5/6-5-3-0--0--/6--6-6--6--6------------|
E|-0--0--0-3--0-5/6-5-3-0--0--/6--6-6--6--6------------|#/1t2##/1t1#

#2t1#   D5      F5           D5    Eb5
#2t2#E|-----------------------------------------------------|
B|-----------------------------------------------------|
G|-----------------------------------------------------|
D|-0--0--0-3--0-5/6-5-3-0--0--1--1-1--1--1-------------|
A|-0--0--0-3--0-5/6-5-3-0--0--1--1-1--1--1-------------|
E|-0--0--0-3--0-5/6-5-3-0--0--1--1-1--1--1-------------|#/2t2##/2t1#

#3t1#   D5      F5           D5     Ab5
#3t2#E|-----------------------------------------------------|
B|-----------------------------------------------------|
G|-----------------------------------------------------|
D|-0--0--0-3--0-5/6-5-3-0--0--/6--6-6--6--6------------|
A|-0--0--0-3--0-5/6-5-3-0--0--/6--6-6--6--6------------|
E|-0--0--0-3--0-5/6-5-3-0--0--/6--6-6--6--6------------|#/3t2##/3t1#

#4t1#   D5      F5           D5    Eb5
#4t2#E|-----------------------------------------------------|
B|-----------------------------------------------------|
G|-----------------------------------------------------|
D|-0--0--0-3--0-5/6-5-3-0--0--1--1---------------------|
A|-0--0--0-3--0-5/6-5-3-0--0--1--1---------------------|
E|-0--0--0-3--0-5/6-5-3-0--0--1--1---------------------|#/4t2##/4t1#

[Primeira Parte]

Dm
   Diga quem você é, me diga
               
Me fale sobre a sua estrada
                          
Me conte sobre a sua vida

[Riff da Estrofe]

#5t1##5t2#E|---------5-------------------------------------------|
B|-3-6-3-6---6-3-6-------------------------------------|
G|-----------------------------------------------------|
D|-----------------------------------------------------|
A|-----------------------------------------------------|
E|-----------------------------------------------------|#/5t2##/5t1#

[Variação do Riff Principal]
  
#6t1#  P.M . . . . . .  .  .  .  .
#6t2#E|-----------------------------------------------------|
B|-----------------------------------------------------|
G|-----------------------------------------------------|
D|-----------------------------------------------------|
A|-0--0-0-0-0-0-3--0-/6--5--3--------------------------|
E|-0--0-0-0-0-0-3--0-/6--5--3--------------------------|#/6t2##/6t1#
  
#7t1#  P.M . . . . . .  . .  .  .
#7t2#E|-----------------------------------------------------|
B|-----------------------------------------------------|
G|-----------------------------------------------------|
D|-----------------------------------------------------|
A|-0--0-0-0-0-0-6--6-6--6--6---------------------------|
E|-0--0-0-0-0-0-6--6-6--6--6---------------------------|#/7t2##/7t1#
   
#8t1#  P.M . . . . . .  .  .  .  .
#8t2#E|-----------------------------------------------------|
B|-----------------------------------------------------|
G|-----------------------------------------------------|
D|-----------------------------------------------------|
A|-0--0-0-0-0-0-3--0-/6--5--3--------------------------|
E|-0--0-0-0-0-0-3--0-/6--5--3--------------------------|#/8t2##/8t1#

#9t1#  P.M . . . . . .  . .  .  .
#9t2#E|-----------------------------------------------------|
B|-----------------------------------------------------|
G|-----------------------------------------------------|
D|-----------------------------------------------------|
A|-0--0-0-0-0-0-1--1-1--1--1---------------------------|
E|-0--0-0-0-0-0-1--1-1--1--1---------------------------|#/9t2##/9t1#

 Dm
Tira a máscara que cobre o seu rosto
                   
Se mostre e eu descubro se eu gosto

Do seu verdadeiro jeito de ser

[Pré-Refrão]

     D5         Eb5
Ninguém merece ser 
 D5
Só mais um bonitinho
 D5           Eb5  D5
Nem transparecer,     consciente
   D5             Eb5
Inconsequente sem    
     D5
Se preocupar em ser 
D5              Eb5  D5
   Adulto ou criança
                      D5
O importante é ser você

[Refrão]

               F5                   G5
Mesmo que seja    estranho, seja você
                Bb5(9)
Mesmo que seja bizarro
               D5
Bizarro, bizarro
               F5                   G5
Mesmo que seja    estranho, seja você
               Bb5(9)
Mesmo que seja

[Intro] D5  F5  D5  Ab5
        D5  F5  D5  Eb5

[Segunda Parte]

 Dm
Tira a máscara que cobre o seu rosto
                   
Se mostre e eu descubro se eu gosto
                Dm
Do seu verdadeiro jeito de ser

[Pré-Refrão]

     D5         Eb5
Ninguém merece ser 
 D5
Só mais um bonitinho
 D5           Eb5  D5
Nem transparecer,     consciente
   D5             Eb5
Inconsequente sem    
     D5
Se preocupar em ser 
D5              Eb5  D5
   Adulto ou criança
                      D5
O importante é ser você

[Refrão]

               F5                   G5
Mesmo que seja    estranho, seja você
                Bb5(9)
Mesmo que seja bizarro
               D5
Bizarro, bizarro
               F5                   G5
Mesmo que seja    estranho, seja você
               Bb5(9)
Mesmo que seja

[Ponte]

#10t1##10t2#E|-----------------------------------------------------|
B|-----------------------------------------------------|
G|-----------------------------------------------------|
D|-6--5--3--0-6--5-5--3--0-----------------------------|
A|-6--5--3--0-6--5-5--3--0-----------------------------|
E|-6--5--3--0-6--5-5--3--0-----------------------------|#/10t2##/10t1#

O meu cabelo não é igual
A sua roupa não é igual
Ao meu tamanho, não é igual
Ao seu caráter, não é igual
Não é igual, não é igual, não é igual

[Terceira Parte]

#11t1##11t2#E|-----------------------------------------------------|
B|-----5-------5---6-----------------------------------|
G|-7-------7-----------5----5--------------------------|
D|---7---7---7---7---7----7----------------------------|
A|-----------------------------------------------------|
E|-----------------------------------------------------|#/11t2##/11t1#

#12t1##12t2#E|-----------------------------------------------------|
B|-----5-------5---6---6------5------------------------|
G|-7-------7-------------------------------------------|
D|---7---7---7---7---7------7---7----------------------|
A|-----------------------------------------------------|
E|-----------------------------------------------------|#/12t2##/12t1#

#13t1##13t2#E|-----------------------------------------------------|
B|-----5-------5---6-----------------------------------|
G|-7-------7-----------5----5--------------------------|
D|---7---7---7---7---7----7----------------------------|
A|-----------------------------------------------------|
E|-----------------------------------------------------|#/13t2##/13t1#

#14t1##14t2#E|-----------------------------------------------------|
B|-----5-------5---6---6------5------------------------|
G|-7-------7-------------------------------------------|
D|---7---7---7---7---7------7---7----------------------|
A|-----------------------------------------------------|
E|-----------------------------------------------------|#/14t2##/14t1#

#15t1##15t2#E|-----------------------------------------------------|
B|-----5-------5---6-----------------------------------|
G|-7-------7-----------5----5--------------------------|
D|---7---7---7---7---7----7----------------------------|
A|-----------------------------------------------------|
E|-----------------------------------------------------|#/15t2##/15t1#

#16t1##16t2#E|-----------------------------------------------------|
B|-----5-------5---6----5------------------------------|
G|-7-------7-------7----7------------------------------|
D|---7---7---7---7-7----7------------------------------|
A|-----------------------------------------------------|
E|-----------------------------------------------------|#/16t2##/16t1#

#17t1#  P.M. . . . . . .
#17t2#E|-----------------------------------------------------|
B|-----------------------------------------------------|
G|-----------------------------------------------------|
D|-----------------------------------------------------|
A|-0-0-0-0-0-0-0-0-------------------------------------|
E|-0-0-0-0-0-0-0-0-------------------------------------|#/17t2##/17t1#

#18t1##18t2#E|-10----10----10----10----10----10----10--------------|
B|-13b15-13b15-13b15-13b15-13b15-13b15-13b15~----------|
G|-----------------------------------------------------|
D|-----------------------------------------------------|
A|-----------------------------------------------------|
E|-----------------------------------------------------|#/18t2##/18t1#

I had enough of it, but I don't care
I had enough of it, but I don't care
I had enough of it, but I don't care
                                 D5
I had enough of it, but I don't care

[Quarta Parte]

 D5  F5  D5
Diga        
     Ab5             D5  F5  D5
Quem     você é, me diga
 Eb5             D5     F5  D5
Me fale sobre a sua estrada
    Ab5           D5  F5  D5
Me conte sobre a sua vida
                        D5
E o importante é ser você

[Refrão Final]
               F5                   G5
Mesmo que seja    estranho, seja você
                Bb5(9)
Mesmo que seja bizarro
               D5
Bizarro, bizarro
               F5                   G5
Mesmo que seja    estranho, seja você
                Bb5(9)
Mesmo que seja bizarro
               D5
Bizarro, bizarro
               F5                   G5
Mesmo que seja    estranho, seja você
                Bb5(9)
Mesmo que seja bizarro
               D5
Bizarro, bizarro
               F5                G5
Mesmo que seja estranho, seja você
Composición: PittyColaboración y revisión: Vinícius DiasDaniel RibasAlexandre FernandesVictor Vasconcelosy más 11
videoclase Máscara (aula de guitarra)