Equalize

Pitty

A
123
X02220
Bm
234
X24432
D
123
XX0232
D/C#
1234
X40232
E
123
022100
Em
12
022000
F#m
34
244222
G
123
320003
G7
34
353433
Tono: G
[Intro]

#1t1#Parte 1 de 2
#1t2#E|------------------------------------------|
B|------------3----------3------------------|
G|------0--4----------0----4----------------|
D|-2h4------------2h4-----------------------|
A|------------------------------------------|
E|------------------------------------------|#/1t2##/1t1#

#2t1#Parte 2 de 2
                   D
#2t2#E|-----------------2------------------------|
B|------------3----3------------------------|
G|------0--4-------2------------------------|
D|-2h4-------------0------------------------|
A|------------------------------------------|
E|------------------------------------------|#/2t2##/2t1#

[Primeira Parte]

    D       D/C#       Bm
As vezes se eu me distraio  
                E
Se eu não me vigio um instante
         F#m                D
Me transporto pra perto de você   
               D/C#    Bm
Já vi que não posso ficar tão solta
               E
Me vem logo aquele cheiro
                F#m
Que passa de você pra mim  
      G       A
Num fluxo perfeito

Em
  Enquanto você conversa e me beija

Ao mesmo tempo eu vejo
               D
As suas cores no seu olho tão de perto
Em
  Me balanço devagar

Como quando você me embala 
              G
O ritmo rola fácil
   A              Bm
Parece que foi ensaiado

[Segunda Parte]

Bm                        A
  E eu acho que eu gosto mesmo de você
G                   G7
  Bem do jeito que você é

[Refrão]

#3t1#                                 D
#3t2#E|-------------------------------2----------|
B|-------------------------------3----------|
G|---------------------------7---2----------|
D|-------------------7-7-7h9-----0----------|
A|-----------5-5-7/9------------------------|
E|-3-3-3-5/7--------------------------------|#/3t2##/3t1#


D     Bm        D     Bm
  Eu vou equalizar você 
D              Bm      A          G
  Numa freqüência que só a gente sabe
D         Bm            D     Bm
  Eu te transformei nessa canção
D        Bm        A      G   D
  Pra poder te gravar em mim 

[Repete a Primeira Parte]

  D         D/C#   Bm
Adoro essa sua    cara de sono
               E
E o timbre da sua voz
          F#m                     D
Que fica me dizendo coisas tão malucas
        D/C#    Bm
E que quase me mata de rir
                 E
Quando tenta me convencer
              F#m
Que eu só fiquei aqui
     G             A
Porque nós dois somos iguais

Em
   Até parece que você já tinha

O meu manual de instruções
               D
Porque você decifra os meus sonhos
Em
   Porque você sabe o que eu gosto

E porque quando você me abraça
         G        A
O mundo gira devagar

[Terceira Parte]

Em                 D                        
   E o tempo é só meu 
                      Em
E ninguém registra a cena 
                       D                       
De repente vira um filme 
                     Bm
Todo em câmera lenta

[Repete a Segunda Parte]

Bm                        A
  E eu acho que eu gosto mesmo de você
G                   G7
  Bem do jeito que você é

[Refrão Final]

#4t1#Parte 1 de 3                                 
#4t2#E|------------------------------------------|
B|------------------------------------------|
G|---------------------------7--------------|
D|-------------------7-7-7h9----------------|
A|-----------5-5-7/9------------------------|
E|-3-3-3-5/7--------------------------------|#/4t2##/4t1#

#5t1#Parte 2 de 3                                  
#5t2#E|------------------------------------------|
B|------------------------------------------|
G|---------------------------7--------------|
D|-------------------7-7-7h9----------------|
A|-----------5-5-7/9------------------------|
E|-3-3-3-5/7--------------------------------|#/5t2##/5t1#

#6t1#Parte 3 de 3
                                 D
#6t2#E|-------------------------------2----------|
B|-------------------------------3----------|
G|---------------------------7---2----------|
D|-------------------7-7-7h9-----0----------|
A|-----------5-5-7/9------------------------|
E|-3-3-3-5/7--------------------------------|#/6t2##/6t1#

D     Bm        D     Bm
  Eu vou equalizar você 
D              Bm      A          G
  Numa freqüência que só a gente sabe
D         Bm            D     Bm
  Eu te transformei nessa canção
D        Bm        A      G
  Pra poder te gravar em mim 

D     Bm        D     Bm
  Eu vou equalizar você 
D              Bm      A          G
  Numa freqüência que só a gente sabe
D         Bm            D     Bm
  Eu te transformei nessa canção
D        Bm        A      G   D
  Pra poder te gravar em mim
Composición: Peu Sousa / PittyColaboración y revisión: Thiago AlmeidaLucas AraújoLuiza EleutérioSulanie Oliveiray más 8
videoclase Equalize (aula de violão)