I Only Lie When I Love You

Royal Blood

Instrumento: Baixo
[Parte 1]

Gb|-----------------------------------------------------------------------------|
Db|-----------------------------------------------------------------------------|
Ab|-5----------3----5----------3---------------------------------5----------3---|
Db|---0--0-3/5---0----0--0-3/5---0---12/--3-3-3-3-7-7-7-7-7-7-7----0--0-3/5---0-|

[Parte 2]

Gb|---------------------------------------|
Db|---------------------------------------|
Ab|---------------8--8b----------/5--5/---|
Db|-5-3-5/6-5--5/-------0--0-3-5--------5-|

Gb|-------------------------5--------|
Db|----------------5-4-3--3----------|
Ab|---------------------------4b-----|
Db|-5-3-5/6-5--5/----------------0-5-|

Gb|---------------------------------------|
Db|---------------------------------------|
Ab|---------------8--8b----------/5--5/---|
Db|-5-3-5/6-5--5/-------0--0-3-5--------5-|

Gb|-------------------------------------------------|
Db|-------------------------------------------------|
Ab|-------------------------------------------------|
Db|-5-3-5/6-5--5/--5-6-7-7--8-8--10-10--11-11-11-11-|

[Parte 3]

Gb|--------------------------------------------------------|
Db|--------------------------------------------------------|
Ab|--------------------------------------------------------|
Db|-7-7--8-8--10-10--11-11--7-7/--8-8/--11-11/-14-14-14-14-|

[Parte 4]

Gb|------------------------------------------------------------|
Db|------------------------------------------------------------|
Ab|-5---------3----5---------3-5--5---------3----5---------3---|
Db|---0-0-3/5---0----0-0-3/5--------0-0-3/5---0----0-0-3/5---0-|
Composición: Colaboración y revisión: Chr0m1ng