A5
1
X02XXX
A6
3
X04P22X
B5
13
X24XXX
Bm
234
XP2443X
C
123
X32010
C#
234
X46664
C#5
13
X46XXX
C5
13
X35XXX
D
123
XX0232
D/A
1234
X04232
D5
12
XX023X
E5
0P22XXX
Em
12
022000
F
34
XX32P11
F#5
13
24XXXX
F5
13
13XXXX
G
123
XX543X
G5
134
355XXX
G7M
1234
3X443X
Tono: G
Intro:

(Guitarra 1)


(Parte 1 - 2x)
   Bm                  G7M
E|--------------------------------
B|--------------------------------
G|--------------------------------
D|----4-----0-------------4-----0-
A|-2-----2------------------------
E|---------------------3-----3----


   Bm                  G7M
E|--------------------------------
B|--------------------------------
G|--------------------------------
D|----4-----0-------------4-----0-
A|-2-----2------------------------
E|---------------------3-----3----

E|--------- 
B|--------- 
G|---0----- 
D|--------- 
A|--------- 
E|--------- 


   Bm                  A6
E|--------------------------------
B|--------------------------------
G|--------------------------------
D|----4-----0-------------4-----0-
A|-2-----2-------------0-----0----
E|--------------------------------


   G7M                 E5    F#5
E|--------------------------------
B|--------------------------------
G|--------------------------------
D|----4-----0---------------------
A|------------------------2-----2-
E|-3-----3-------------0-----2----



(Parte 2)
   Bm                  G7M
E|--------------------------------
B|--------------------------------
G|--------------------------------
D|----4-----0-------------4-----0-
A|-2-----2------------------------
E|---------------------3-----3----


   Bm                  G7M
E|--------------------------------
B|--------------------------------
G|--------------------------------
D|----4-----0-------------4-----0-
A|-2-----2------------------------
E|---------------------3-----3----

E|--------- 
B|--------- 
G|---0----- 
D|--------- 
A|--------- 
E|--------- 


   Bm                  A6
E|--------------------------------
B|--------------------------------
G|--------------------------------
D|----4-----0-------------4-----0-
A|-2-----2-------------0-----0----
E|--------------------------------


   G7M            E5    F#5   E5   
E|-------------------------------
B|-------------------------------
G|-------------------------------
D|----4-----0--------------------
A|-------------------2-----2-----
E|-3-----3--------0-----2-----0--
   F#5
E|---------- 
B|---------- 
G|---------- 
D|---------- 
A|2--2h4--2- 
E|---------- 



(Parte 3)
   Bm                 G7M
E|-------------------------------
B|-------------------------------
G|-------------------------------
D|----4-----0-0-4-0------4-----0-
A|-2-----2-----------------------
E|--------------------3-----3----

E|---------- 
B|---------- 
G|---------- 
D|4-4-0----- 
A|---------- 
E|---------- 


   Bm                 G7M
E|-------------------------------
B|-------------------------------
G|-------------------------------
D|----4-----0-0-4-0------4-----0-
A|-2-----2-----------------------
E|--------------------3-----3----

E|---------- 
B|---------- 
G|---------- 
D|4-4-0----- 
A|---------- 
E|---------- 


   Bm                 A6
E|-------------------------------
B|-------------------------------
G|-------------------------------
D|----4-----0-0-4-0------4-----0-
A|-2-----2------------0-----0----
E|-------------------------------

E|---------- 
B|---------- 
G|----0----- 
D|4-4------- 
A|---------- 
E|---------- 


   G7M                 E5         
E|--------------------------------
B|--------------------------------
G|--------------------------------
D|----4-----0-0-4-0-------2h4---2-
A|--------------------------------
E|-3-----3-------------0------0---
   F#5
E|--------- 
B|--------- 
G|--------- 
D|--------- 
A|----4---- 
E|-2------- 



(Parte 4)
   G5          A5    D5
E|-------------------------------
B|----------------------------3--
G|----------------------2--0-----
D|-------0--------2--0-----------
A|----5--------0-----------------
E|-3--------3--------------------

E|---------- 
B|---------- 
G|2--0------ 
D|---------- 
A|---------- 
E|---------- 


   G
E|--------------------------------
B|------0-0h3p0---0-0h3p0---0-----
G|----4---------4---------4-------
D|-5------------------------------
A|--------------------------------
E|--------------------------------


     F                 Em
E|------------1-------------------
B|------1--------1--------0-----0-
G|---------0--------0--------0----
D|-2/3-----------------2----------
A|--------------------------------
E|--------------------------------

E|-0------- 
B|----0---- 
G|--------- 
D|--------- 
A|--------- 
E|--------- 


   D5                G
E|--------------------------------
B|----------3-------------0-0h3p0-
G|----2--0-----2--0-----4---------
D|-0-----------------3------------
A|--------------------------------
E|--------------------------------

E|--------- 
B|--0------ 
G|4-------- 
D|--------- 
A|--------- 
E|--------- 


                F
E|-----------------------1--------
B|-0h3p0---0-------1--------1-----
G|-------4------------0--------0--
D|------------2/3-----------------
A|--------------------------------
E|--------------------------------


   Em
E|--------------------------------
B|----0-----0---------------------
G|-------0------------------------
D|-2------------------------------
A|-------------2/3----------------
E|--------------------------------


(Guitarra 2)


E|--------------------------------
B|--------------------3p2-----3p2-
G|------2--b5r4------------4------
D|-2h4----------------------------
A|--------------------------------
E|--------------------------------

E|------------------- 
B|----3--3p2--------- 
G|-2----------4~----- 
D|------------------- 
A|------------------- 
E|------------------- 



         P.M     .       .       .
E|-------------------------------
B|-------------------------------
G|-11p9-----9p7-----7p6-----6p4--
D|-------0-------0-------0-------
A|-------------------------------
E|-------------------------------

E|-------------------- 
B|-------------------- 
G|---2--2/4~~--------- 
D|0------------------- 
A|-------------------- 
E|-------------------- 



E|-------------------------------
B|------2h3-2~--------2--3p2-----
G|-2/4-----------2/4----------2--
D|-------------------------------
A|-------------------------------
E|-------------------------------
   P.M.                          

E|-------------------- 
B|-------------------- 
G|2/4~~--------------- 
D|-------------------- 
A|-------------------- 
E|-------------------- 
                     


E|-------14--19-----19p17p15-17-
B|----15------------------------
G|-16---------------------------
D|------------------------------
A|------------------------------
E|------------------------------

E|--------------------- 
B|17~------------------ 
G|--------------------- 
D|--------------------- 
A|--------------------- 
E|--------------------- 



E|--------------------------------
B|--------------------------------
G|-------------9p7-9----11p9-11---
D|-12p11-12-----------------------
A|--------------------------------
E|--------------------------------

E|------------------- 
B|------------------- 
G|-/12--12--11~------ 
D|------------------- 
A|------------------- 
E|------------------- 



E|-----------------------------
B|-----------------------------
G|-------11-12-14~-------11-12-
D|----12--------------12-------
A|-14--------------14----------
E|-----------------------------

E|---------------------- 
B|12~----------12-12/14- 
G|----------11---------- 
D|-------12------------- 
A|----14---------------- 
E|---------------------- 



E|--------------------------------
B|-15-15/17--15--14--12--14--14---
G|--------------------------------
D|--------------------------------
A|--------------------------------
E|--------------------------------

E|------------------- 
B|--15-12~~---------- 
G|------------------- 
D|------------------- 
A|------------------- 
E|------------------- 



Primeira Parte 2x:
   Bm                 G7M
E|-------------------------------
B|-------------------------------
G|-------------------------------
D|----4-----0-0-4-0------4-----0-
A|-2-----2-----------------------
E|--------------------3-----3----

E|---------- 
B|---------- 
G|---------- 
D|4-4-0----- 
A|---------- 
E|---------- 


   Bm                 G7M         
E|--------------------------------
B|--------------------------------
G|--------------------------------
D|----4-----0-0-4-0------4-----0--
A|-2-----2------------------------
E|--------------------3-----3-----
   D/A
E|--------- 
B|--------- 
G|--------- 
D|-0------- 
A|-0------- 
E|--------- 


   Bm                 A6
E|-------------------------------
B|-------------------------------
G|-------------------------------
D|----4-----0-0-4-0------4-----0-
A|-2-----2------------0-----0----
E|-------------------------------

E|---------- 
B|---------- 
G|----0----- 
D|4-4------- 
A|---------- 
E|---------- 


   G7M                 E5    F#5
E|--------------------------------
B|--------------------------------
G|--------------------------------
D|----4-----0-0-4-0---------------
A|------------------------2-----2-
E|-3-----3-------------0-----2----



Bm                 G7M
  I can't remember anything
Bm                        G7M
  Can't tell if this is true or 
     D/A
dream
Bm                    A6
  Deep down inside I feel to screem
G7M                     ( E5   F#5 )
  This terrible silence stops me
Bm                       G7M
  Now that the war is through with 
me
Bm                  G7M    D/A
  I'm waking up, I cannot see
Bm                       A6
  That there's not much left to me
G7M                  ( E5   F#5 )
  Nothing is real but pain now


Primeiro Refrão:
   G5    A5  B5  A5  G5    F#5   
E|-------------------------------
B|-------------------------------
G|-------------------------------
D|-------------------------------
A|-5-----7---9---7---5-----4-----
E|-3-----5---7---5---3-----2-----
  B5
E|---------- 
B|---------- 
G|---------- 
D|---------- 
A|9--------- 
E|7--------- 


   A5    B5  C#5 B5  A5  ( C      )
E|-------------------------------
B|-------------------------------
G|-------------------------------
D|-------4---6---4---2-----------
A|-7-----2---4---2---0-----3~----
E|-5-----------------------------
  C#
E|---------- 
B|---------- 
G|---------- 
D|---------- 
A|4~-------- 
E|---------  



 G5   A5  B5   A5 G5 F#5  B5  A5
Hold my breath as I wish for death
B5  C#5  B5   A5  ( C    C#   D )
         Oh please God, wake me
Primeira Ponte:

   D5                G
E|--------------------------------
B|----------3-------------0-0h3p0-
G|----2--0-----2--0-----4---------
D|-0-----------------5------------
A|--------------------------------
E|--------------------------------

E|--------- 
B|--0------ 
G|4-------- 
D|--------- 
A|--------- 
E|--------- 


                F
E|-----------------------1--------
B|-0h3p0---0-------1--------1-----
G|-------4------------0--------0--
D|------------2/3-----------------
A|--------------------------------
E|--------------------------------


   Em
E|-------------0------------------
B|----0-----0-----0---------------
G|-------0------------------------
D|-2------------------------------
A|--------------------------------
E|--------------------------------


   D5                G
E|--------------------------------
B|----------3-------------0-0h3p0-
G|----2--0-----2--0-----4---------
D|-0-----------------5------------
A|--------------------------------
E|--------------------------------

E|--------- 
B|--0------ 
G|4-------- 
D|--------- 
A|--------- 
E|--------- 


                F
E|-----------------------1--------
B|-0h3p0---0-------1--------1-----
G|-------4------------0--------0--
D|------------2/3-----------------
A|--------------------------------
E|--------------------------------


   Em
E|--------------------------------
B|----0-----0---------------------
G|-------0------------------------
D|-2------------------------------
A|-------------2/3----------------
E|--------------------------------



(Segunda Parte - Igual a Primeira 
Parte)

Bm                       G7M
  Back in the womb it's much too 
real
Bm                   G7M     D/A
  In pumps life that I must feel
Bm                        A6
  But can't look forward to reveal
G7M                   ( E5    F#5 )
  Look to the time when I'll live
Bm                            G7M
  Fed through the tube that sticks 
in me
Bm                     G7M  D/A
  Just like a wartime novelty
Bm                       A6
  Tied to machines that make me be
G7M                 ( E5  F#5 )
  Cut this life off from me

(Segundo Refrão - Igual ao Primeiro 
Refrão)

 G5   A5  B5   A5 G5 F#5  B5  A5
Hold my breath as I wish for death
B5  C#5  B5   A5  ( C    C#   D )
         Oh please God, wake me
Segunda Ponte:

(Guitarra 1 - 4x) D5 G E|-------------------------------- B|----------3-------------0-0h3p0- G|----2--0-----2--0-----4--------- D|-0-----------------5------------ A|-------------------------------- E|-------------------------------- E|--------- B|--0------ G|4-------- D|--------- A|--------- E|--------- F E|-----------------------1-------- B|-0h3p0---0-------1--------1----- G|-------4------------0--------0-- D|------------2/3----------------- A|-------------------------------- E|-------------------------------- Em E|-------------0------------------ B|----0-----0-----0--------------- G|-------0------------------------ D|-2------------------------------ A|-------------------------------- E|-------------------------------- (Guitarra 2) E|-------------------------------- B|-10p7-7-7-10---10--8--7---7h8p7- G|------------------------9------- D|-------------------------------- A|-------------------------------- E|-------------------------------- E|------------------- B|------------------- G|-7~---------------- D|------------------- A|------------------- E|------------------- E|-7/10--8--7------7h8p7---------- B|-------------10---------8~------ G|-------------------------------- D|-------------------------------- A|-------------------------------- E|-------------------------------- E|-17p14----14-17--17--15-- B|-------15---------------- G|------------------------- D|------------------------- A|------------------------- E|------------------------- E|14h15p14---------14-15-17- B|----------15--15---------- G|-------------------------- D|-------------------------- A|-------------------------- E|-------------------------- E|-19p17p15-19p17p15-19p17p15---- B|----------------------------19- G|------------------------------- D|------------------------------- A|------------------------------- E|------------------------------- E|15------------------ B|---17-19-15~-------- G|-------------------- D|-------------------- A|-------------------- E|-------------------- E|-------------------------------- B|--/8---8-8-8-7------------/13--- G|--/7---7-7-7-7------------/12--- D|-------------------------------- A|-------------------------------- E|-------------------------------- E|------------------- B|13-13-13-12-------- G|12-12-12-12-------- D|------------------- A|------------------- E|------------------- T T T T T T E|-20p17p13-20p17p13-20p17p13- B|---------------------------- G|---------------------------- D|---------------------------- A|---------------------------- E|---------------------------- E|20p17p13-20p17p13-20--- B|----------------------- G|----------------------- D|----------------------- A|----------------------- E|----------------------- T T E|-p17p13-19p12h13p12------ B|------------------------- G|------------------------- D|------------------------- A|------------------------- E|------------------------- E|19p12h13p12--------------- B|-------------------------- G|-------------------------- D|-------------------------- A|-------------------------- E|-------------------------- Terceiro Refrão: G5 A5 B5 A5 G5 F#5 E|------------------------------- B|------------------------------- G|------------------------------- D|------------------------------- A|-5-----7---9---7---5-----4----- E|-3-----5---7---5---3-----2----- B5 E|---------- B|---------- G|---------- D|---------- A|9--------- E|7--------- A5 B5 C#5 B5 A5 ( B5 ) E|------------------------------- B|------------------------------- G|------------------------------- D|-------4---6---4---2-----4----- A|-7-----2---4---2---0-----2----- E|-5----------------------------- C# E|---------- B|---------- G|---------- D|6--------- A|4--------- E|---------- G5 A5 B5 A5 G5 F#5 E|------------------------------- B|------------------------------- G|------------------------------- D|------------------------------- A|-5-----7---9---7---5-----4----- E|-3-----5---7---5---3-----2----- B5 E|---------- B|---------- G|---------- D|---------- A|9--------- E|7--------- A5 B5 C#5 B5 A5 ( B5 ) E|------------------------------- B|------------------------------- G|------------------------------- D|-------4---6---4---2-----4----- A|-7-----2---4---2---0-----2----- E|-5----------------------------- C# E|---------- B|---------- G|---------- D|6--------- A|4--------- E|---------- G5 A5 B5 A5 G5 F#5 E|------------------------------- B|------------------------------- G|------------------------------- D|------------------------------- A|-5-----7---9---7---5-----4----- E|-3-----5---7---5---3-----2----- P.M . . B5 E|---------- B|---------- G|---------- D|---------- A|9--------- E|7--------- G5 A5 B5 A5 G5 F#5 B5 A5 Now the world is gone I'm just one B5 C#5 B5 A5 B5 C#5 Oh God, help me G5 A5 B5 A5 G5 F#5 B5 A5 Hold my breath as I wish for death B5 C#5 B5 A5 B5 C#5 Oh please God, help G5 A5 B5 A5 G5 F#5 B5 me Interlúdio 1: (Guitarra 1 - 4x) E|------------------------------- B|------------------------------- G|-5~---4--5--7--7~---------4~--- D|------------------------------- A|-3~---2--3--5--5~---------2~--- E|------------------------------- E|-------------------- B|-------------------- G|4--4---5~----------- D|-------------------- A|2--2---3~----------- E|-------------------- (Guitarra 2 - 2x) E|------------------------------- B|------------------------------- G|-9~---7--9--11-12~------------- D|--------------------------9~--- A|------------------------------- E|------------------------------- E|-------------------- B|-------------------- G|-------------------- D|7--9-7-10~~--------- A|-------------------- E|-------------------- E|------------------------------- B|------------------------------- G|-9~---7--9--11-12~--------8~--- D|------------------------------- A|------------------------------- E|------------------------------- E|-------------------- B|-------------------- G|---8-8-9------------ D|9------------------- A|-------------------- E|-------------------- Interlúdio 2: Em D E|------------------------------- B|------------------------------- G|------------------------------- D|-------5--7--5---4-0-4--5--4\-- A|-------7--9--7---5-0-5--5--5\-- E|-0--0----------0--------------- P.M. . . B5 E|---------- B|---------- G|---------- D|4--4-4-4-- A|2--2-2-2-- E|---------- C5 E|-------------------------------- B|-------------------------------- G|-------------------------------- D|---4---5--5-5-5---5------------- A|---2---3--3-3-3---3------------- E|-2---2----------3---3----------- P.M . . . Em D E|------------------------------- B|------------------------------- G|------------------------------- D|-------5--7--5---4-0-4--5--4\-- A|-------7--9--7---5-0-5--5--5\-- E|-0--0----------0--------------- P.M. . . B5 E|---------- B|---------- G|---------- D|4--4-4-4-- A|2--2-2-2-- E|---------- C5 Em E|-------------------------------- B|-------------------------------- G|-------------------------------- D|---4---5--5-5-5---5----5-------- A|---2---3--3-3-3---3----7-------- E|-2---2----------3---3--0-------- P.M . . . Terceira Parte: E5 E|-------------------------------- B|-------------------------------- G|-------------------------------- D|-------------2------------------ A|-------------2------------------ E|-0-0-0-0-0-0-0------0-0-0-0-0-0- P.M . . . . . . . . . . E|--------- B|--------- G|--------- (3x) D|2-------- A|2-------- E|0-------- E5 ( E|-------------------------------- B|-------------------------------- G|-------------------------------- D|-------------2------------------ A|-------------2------------------ E|-0-0-0-0-0-0-0------0-0-0-0-0-0- P.M . . . . . . . . . . E5 F5 ) E|--------- B|--------- G|--------- (5x) D|2--3----- A|2--3----- E|0-------- Terceira Parte - Com Vocal 2x: E5 E|-------------------------------- B|-------------------------------- G|-------------------------------- D|-------------2------------------ A|-------------2------------------ E|-0-0-0-0-0-0-0------0-0-0-0-0-0- P.M . . . . . . . . . . E|--------- B|--------- G|--------- D|2-------- A|2-------- E|0-------- ( E|-------------------------------- B|-------------------------------- G|-------------------------------- D|-------------2------------------ A|-------------2------------------ E|-0-0-0-0-0-0-0------0-0-0-0-0-0- P.M . . . . . . . . . . E5 F5 ) E|--------- B|--------- G|--------- D|2--3----- A|2--3----- E|0-------- E5 Darkness imprisoning me ( E5 F5 ) All that I see, absolute horror E5 I cannot live, I cannot die Trapped in myself ( E5 F5 ) Body my holding cell Riff - Passagem: P.M . . . . . . . . . . E|-------------------------------- B|-------------------------------- G|-------------------------------- D|-------------------------------- A|-------------7~----------------- E|-0-0-0-0-0-0--------0-0-0-0-0-0- E|------------------- B|------------------- G|------------------- D|------------------- A|7--8~-------------- E|------------------- P.M . . . . . . . . . . E|-------------------------------- B|-------------------------------- G|-------------------------------- D|-------------------------------- A|-------------5~----------------- E|-0-0-0-0-0-0--------0-0-0-0-0-0- E|------------------- B|------------------- G|------------------- D|------------------- A|5--8~-------------- E|------------------- P.M . . . . . . . . . . E|-------------------------------- B|-------------------------------- G|-------------------------------- D|-------------------------------- A|-------------7~----------------- E|-0-0-0-0-0-0--------0-0-0-0-0-0- E|------------------- B|------------------- G|------------------- D|------------------- A|7--8~-------------- E|------------------- P.M . . . . . . . . . . E|-------------------------------- B|-------------------------------- G|-------------------------------- D|-------------------------------- A|-------------5~----------------- E|-0-0-0-0-0-0--------0-0-0-0-0-0- E|------------------- B|------------------- G|------------------- D|------------------- A|5------------------ E|---7~-------------- (Terceira Parte - Com Vocal 2x) E5 Land mine has taken my sight ( E5 F5 ) Taken my speech, taken my hearing E5 Taken my arms, taken my legs ( E5 F5 ) Taken my soul, left me with life in hell Terceira Ponte: E5 E|------------------------------- B|------------------------------- G|------------------------------- D|-------------2--------------2-- A|-------------2--------------2-- E|-0-0-0-0-0-0----0-0-0-0-0-0---- P.M . . . . . . . . . . F5 E|---------- B|---------- G|---------- (4x) D|----3----- A|----3----- E|0-0------- . . E5 E|------------------------------- B|------------------------------- G|------------------------------- D|------------------------------- A|------------------------------- E|-0-0-0-0-0-0-0--0-0-0-0-0-0-0-- P.M . . . . . . . . . . . . E|---------- B|---------- G|---------- (2x) D|---------- A|---------- E|0-0-0----- . . . E5 E|------------------------------- B|------------------------------- G|------------------------------- D|-------------2--------------2-- A|-------------2--------------2-- E|-0-0-0-0-0-0----0-0-0-0-0-0---- P.M . . . . . . . . . . F5 E|---------- B|---------- G|---------- (4x) D|----3----- A|----3----- E|0-0------- . . E5 E|------------------------------- B|------------------------------- G|------------------------------- D|------------------------------- A|------------------------------- E|-0-0-0-0-0-0-0--0-0-0-0-0-0-0-- P.M . . . . . . . . . . . . E|---------- B|---------- G|---------- (2x) D|---------- A|---------- E|0-0-0----- . . . Solo: T T T T E|-19p15p12-19p15p12-19p15p12- B|---------------------------- G|---------------------------- D|---------------------------- A|---------------------------- E|---------------------------- E|19p15p12--------------- B|----------------------- G|----------------------- D|----------------------- A|----------------------- E|----------------------- T T T T E|-19p15p12-19p15p12-19p15p12- B|---------------------------- G|---------------------------- D|---------------------------- A|---------------------------- E|---------------------------- E|19p15p12--------------- B|----------------------- G|----------------------- D|----------------------- A|----------------------- E|----------------------- T T T T E|-20p15p12-20p15p12-20p15p12- B|---------------------------- G|---------------------------- D|---------------------------- A|---------------------------- E|---------------------------- E|20p15p12--------------- B|----------------------- G|----------------------- D|----------------------- A|----------------------- E|----------------------- T T T T E|-20p15p12-20p15p12-20p15p12- B|---------------------------- G|---------------------------- D|---------------------------- A|---------------------------- E|---------------------------- E|20p15p12--------------- B|----------------------- G|----------------------- D|----------------------- A|----------------------- E|----------------------- T T T T E|---------------------------- B|-19p15p12-19p15p12-19p15p12- G|---------------------------- D|---------------------------- A|---------------------------- E|---------------------------- E|----------------------- B|19p15p12--------------- G|----------------------- D|----------------------- A|----------------------- E|----------------------- T T T T E|---------------------------- B|-19p15p12-19p15p12-19p15p12- G|---------------------------- D|---------------------------- A|---------------------------- E|---------------------------- E|----------------------- B|19p15p12--------------- G|----------------------- D|----------------------- A|----------------------- E|----------------------- T T T T E|---------------------------- B|-20p15p12-20p15p12-20p15p12- G|---------------------------- D|---------------------------- A|---------------------------- E|---------------------------- E|----------------------- B|20p15p12--------------- G|----------------------- D|----------------------- A|----------------------- E|----------------------- T T T T E|---------------------------- B|-20p15p12-20p15p12-20p15p12- G|---------------------------- D|---------------------------- A|---------------------------- E|---------------------------- E|----------------------- B|20p15p12--------------- G|----------------------- D|----------------------- A|----------------------- E|----------------------- T T T T E|---------------------------- B|-17p13p10-17p13p10-17p13p10- G|---------------------------- D|---------------------------- A|---------------------------- E|---------------------------- E|----------------------- B|17p13p10--------------- G|----------------------- D|----------------------- A|----------------------- E|----------------------- T T T T E|---------------------------- B|-17p13p10-17p13p10-17p13p10- G|---------------------------- D|---------------------------- A|---------------------------- E|---------------------------- E|----------------------- B|17p13p10--------------- G|----------------------- D|----------------------- A|----------------------- E|----------------------- T T T T E|---------------------------- B|-18p13p10-18p13p10-18p13p10- G|---------------------------- D|---------------------------- A|---------------------------- E|---------------------------- E|----------------------- B|18p13p10--------------- G|----------------------- D|----------------------- A|----------------------- E|----------------------- T T T T E|---------------------------- B|-18p13p10-18p13p10-18p13p10- G|---------------------------- D|---------------------------- A|---------------------------- E|---------------------------- E|----------------------- B|18p13p10--------------- G|----------------------- D|----------------------- A|----------------------- E|----------------------- T T T T T T T T E|---------------------------- B|-17p12h14-17p12-17p10-17p12- G|---------------------------- D|---------------------------- A|---------------------------- E|---------------------------- E|----------------------- B|17p10-17p8-17p10-17p8-- G|----------------------- D|----------------------- A|----------------------- E|----------------------- T T T T E|-------------------------------- B|-17p7-17p8-17p7-17p5~~---------- G|-------------------------------- D|-------------------------------- A|-------------------------------- E|-------------------------------- E|------------------------14-14- B|-/12-12-12-12-12-12-12-------- G|------------------------------ D|------------------------------ A|------------------------------ E|------------------------------ E|14-15-15-15-17-17-17- B|--------------------- G|--------------------- D|--------------------- A|--------------------- E|--------------------- E|----------17-17-17-22b24--- B|-15-15-15------------------ G|--------------------------- D|--------------------------- A|--------------------------- E|--------------------------- E|22b24---22b24~~--------- B|------------------------ G|------------------------ D|------------------------ A|------------------------ E|------------------------ E|------15-17p15------------- B|-/17-----------19-15h17h19- G|--------------------------- D|--------------------------- A|--------------------------- E|--------------------------- E|15h17p15---------------- B|---------19-15h17h19---- G|------------------------ D|------------------------ A|------------------------ E|------------------------ E|-15h17p15-------------15h17p15- B|----------19-15h17h19---------- G|------------------------------- D|------------------------------- A|------------------------------- E|------------------------------- E|-------------------- B|19-15h17h19--------- G|-------------------- D|-------------------- A|-------------------- E|-------------------- E|-15h17p15-------------15h17p15- B|----------19-15h17h19---------- G|------------------------------- D|------------------------------- A|------------------------------- E|------------------------------- E|-------------------- B|19-15h17h19--------- G|-------------------- D|-------------------- A|-------------------- E|-------------------- E|-19p15----19p15----19p15---- B|-------15-------15-------15- G|---------------------------- D|---------------------------- A|---------------------------- E|---------------------------- E|19p15------------------ B|------15--------------- G|----------------------- D|----------------------- A|----------------------- E|----------------------- E|-19p15----19p15----19p15---- B|-------15-------15-------15- G|---------------------------- D|---------------------------- A|---------------------------- E|---------------------------- E|19p15------------------ B|------15--------------- G|----------------------- D|----------------------- A|----------------------- E|----------------------- E|-------15-------15-------15- B|-18b20----18b20----18b20---- G|---------------------------- D|---------------------------- A|---------------------------- E|---------------------------- E|------15-18b20-15------ B|18b20------------------ G|----------------------- D|----------------------- A|----------------------- E|----------------------- E|-------15-18b20-15-------15-- B|-18b20-------------18b20----- G|----------------------------- D|----------------------------- A|----------------------------- E|----------------------------- E|19p17p15--17---------- B|---------------------- G|---------------------- D|---------------------- A|---------------------- E|---------------------- E|-17p15p14-15-------------- B|-------------19p17p15-17-- G|-------------------------- D|-------------------------- A|-------------------------- E|-------------------------- E|------------------------- B|15h17p15p13-15----------- G|------------------------- D|------------------------- A|------------------------- E|------------------------- E|-------------------------------- B|-13h15p13p12-13--12h13p12----12- G|--------------------------14---- D|-------------------------------- A|-------------------------------- E|-------------------------------- E|------------------- B|------------------- G|14-12-14p12----12-- D|------------14----- A|------------------- E|------------------- E|---------------------------- B|---------------------------- G|----12-14b16--14b16--14b16-- D|-14------------------------- A|---------------------------- E|---------------------------- E|----------------------- B|----------------------- G|14b16--14b16~~~-------- D|----------------------- A|----------------------- E|----------------------- E|-------------------------------- B|-------------------------------- G|-b16r14p12----12----12---------- D|-----------14----14----14-13-12- A|-------------------------------- E|-------------------------------- E|------------------- B|------------------- G|------------------- D|------------------- A|14-13-12-10~~------ E|------------------- P.M. . . . . E|------------------------------- B|-------15b16-------15b16------- G|-------15b16-------15b16------- D|-17-17-------17-17-------17-17- A|------------------------------- E|------------------------------- . . E|-------------------- B|15b16-------15b16--- G|15b16-------15b16--- D|------17-17--------- A|-------------------- E|-------------------- E|-------------------------------- B|-17~~--17~~--15h17b15----15b16-- G|-17~~--17~~--15h17b15----15b16-- D|----------------------17-------- A|-------------------------------- E|-------------------------------- P.M. . . . . E|------------------------------- B|-------15b16-------15b16------- G|-------15b16-------15b16------- D|-17-17-------17-17-------17-17- A|------------------------------- E|------------------------------- E|-------------------- B|17-15b16------------ G|17-15b16------------ D|-------------------- A|-------------------- E|-------------------- E|-------15-------15-------15- B|-18b20----18b20----18b20---- G|---------------------------- D|---------------------------- A|---------------------------- E|---------------------------- E|------15-------15------ B|18b20----18b20--------- G|----------------------- D|----------------------- A|----------------------- E|----------------------- E|-------15----------------------- B|-18b20----18b20~~~-------------- G|-------------------------------- D|-------------------------------- A|-------------------------------- E|-------------------------------- Quarta Parte: G5 E|-------------------------------- B|-------------------------------- G|-------------------------------- D|-------------------------------- A|----------------5-5-5-5-5-5-4-4- E|-3-3-3-3-3-3-3------------------ P.M . . . . . . . . . . . . . E|------------------- B|------------------- G|------------------- D|------------------- A|4-3-3-3-2-2-2~----- E|------------------- . . . . . . . E5 E|------------------------------- B|------------------------------- G|------------------------------- D|-------------2--------------2-- A|-------------2--------------2-- E|-0-0-0-0-0-0----0-0-0-0-0-0---- P.M . . . . . . . . . . F5 E|---------- B|---------- G|---------- (4x) D|----3----- A|----3----- E|0-0------- . . E5 E|-------------------------------- B|-------------------------------- G|-------------------------------- D|-------------------------------- A|----------------5-5-5-5-5-5-4-4- E|-0-0-0-0-0-0-0------------------ P.M . . . . . . . . . . . . . E|------------------- B|------------------- G|------------------- D|------------------- A|4-3-3-3-2-2-2------ E|------------------- . . . . . . . Solo Final: (Guitarra 1) E|------------------------------- B|-8-8-8-7b8r7---10-10-10-8b10r8- G|-------------7----------------- D|------------------------------- A|------------------------------- E|------------------------------- E|-------------------- B|--12-12-12-10------- G|9------------------- D|-------------------- A|-------------------- E|-------------------- E|-------------------------------- B|-12p10p8-10--10p8p7-8--8p7p5-7-- G|-------------------------------- D|-------------------------------- A|-------------------------------- E|-------------------------------- E|------------------- B|7p5p3-5------------ G|------------------- D|------------------- A|------------------- E|------------------- E|------------------------------- B|-8-8-8-7b8r7---10-10-10-8b10r8- G|-------------7----------------- D|------------------------------- A|------------------------------- E|------------------------------- E|-------------------- B|--12-12-12-10------- G|9------------------- D|-------------------- A|-------------------- E|-------------------- E|-------------------------------- B|-12p10p8-10--10p8p7-8--13p12p10- G|-------------------------------- D|-------------------------------- A|-------------------------------- E|-------------------------------- E|------------------- B|12--12p10p8-10----- G|------------------- D|------------------- A|------------------- E|------------------- E|------------------------------- B|-8-8-8-7b8r7---10-10-10-8b10r8- G|-------------7----------------- D|------------------------------- A|------------------------------- E|------------------------------- E|-------------------- B|--12-12-12-10------- G|9------------------- D|-------------------- A|-------------------- E|-------------------- E|-------------------------------- B|-12p10p8-10--10p8p7-8--8p7p5-7-- G|-------------------------------- D|-------------------------------- A|-------------------------------- E|-------------------------------- E|------------------- B|7p5p3-5------------ G|------------------- D|------------------- A|------------------- E|------------------- E|------------------------------- B|-8-8-8-7b8r7---10-10-10-8b10r8- G|-------------7----------------- D|------------------------------- A|------------------------------- E|------------------------------- E|-------------------- B|--12-12-12-10------- G|9------------------- D|-------------------- A|-------------------- E|-------------------- E|-------------------------------- B|-12p10p8-10--10p8p7-8--8p7p5-7-- G|-------------------------------- D|-------------------------------- A|-------------------------------- E|-------------------------------- E|------------------- B|------------------- G|11p9p7-9--9p7p6-7-- D|------------------- A|------------------- E|------------------- E|-------------------------------- B|-------------------------------- G|-7p6p4-6--6p4p2-4--4p2p0-2------ D|-------------------------------- A|-------------------------------- E|-------------------------------- (Guitarra 2) E|-------------------------------- B|-------------------------------- G|-9-9-9-7b9r7----11-11-11-9b11r9- D|-------------9------------------ A|-------------------------------- E|-------------------------------- E|------------------- B|------------------- G|---12-12-12-11----- D|9------------------ A|------------------- E|------------------- E|-------------------------------- B|-------------------------------- G|-12p11p9-11—11p9p7-9--9p7p6-7--- D|-------------------------------- A|-------------------------------- E|-------------------------------- E|------------------- B|------------------- G|7p6p4-6------------ D|------------------- A|------------------- E|------------------- E|-------------------------------- B|-------------------------------- G|-9-9-9-7b9r7----11-11-11-9b11r9- D|-------------9------------------ A|-------------------------------- E|-------------------------------- E|------------------- B|------------------- G|---12-12-12-11----- D|9------------------ A|------------------- E|------------------- E|------------------------------- B|------------------------------- G|-12p11p9-11—11p9p7-9--14p12p11- D|------------------------------- A|------------------------------- E|------------------------------- E|-------------------- B|-------------------- G|12--12p11p9-11------ D|-------------------- A|-------------------- E|-------------------- E|-------------------------------- B|-------------------------------- G|-9-9-9-7b9r7----11-11-11-9b11r9- D|-------------9------------------ A|-------------------------------- E|-------------------------------- E|------------------- B|------------------- G|---12-12-12-11----- D|9------------------ A|------------------- E|------------------- E|-------------------------------- B|-------------------------------- G|-12p11p9-11—11p9p7-9--9p7p6-7--- D|-------------------------------- A|-------------------------------- E|-------------------------------- E|------------------- B|------------------- G|7p6p4-6------------ D|------------------- A|------------------- E|------------------- E|-------------------------------- B|-------------------------------- G|-9-9-9-7b9r7----11-11-11-9b11r9- D|-------------9------------------ A|-------------------------------- E|-------------------------------- E|------------------- B|------------------- G|---12-12-12-11----- D|9------------------ A|------------------- E|------------------- E|-------------------------------- B|-------------------------------- G|-12p11p9-11--11p9p7-9--9p7p6-7-- D|-------------------------------- A|-------------------------------- E|-------------------------------- E|------------------- B|------------------- G|------------------- D|12p11p9-11--------- A|------------------- E|------------------- E|----------------------------- B|----------------------------- G|----------------------------- D|-11p9p7-9--9p7p5-7--7p5p4-5-- A|----------------------------- E|----------------------------- E|---------------------- B|---------------------- G|---------------------- D|5p4p2-0--------------- A|---------------------- E|---------------------- Final: E5 E|------------------------------- B|------------------------------- G|------------------------------- D|-------------2--------------2-- A|-------------2--------------2-- E|-0-0-0-0-0-0----0-0-0-0-0-0---- P.M . . . . . . . . . . F5 E|---------- B|---------- G|---------- (4x) D|----3----- A|----3----- E|0-0------- . . G5 E|-------------------------------- B|-------------------------------- G|-------------------------------- D|-----5------5------5------5----- A|-----5------5------5------5----- E|-3-3-3--3-3-3--3-3-3--3-3-3----- P.M . . . . . . E5 E|------------------------------- B|------------------------------- G|------------------------------- D|-------------2--------------2-- A|-------------2--------------2-- E|-0-0-0-0-0-0----0-0-0-0-0-0---- P.M . . . . . . . . . . F5 E|---------- B|---------- G|---------- D|----3----- A|----3----- E|0-0------- . . G5 E|-------------------------------- B|-------------------------------- G|-------------------------------- D|-----5------5------5------5----- A|-----5------5------5------5----- E|-3-3-3--3-3-3--3-3-3--3-3-3----- P.M . . . . . . E5 F5 E|-------------------------------- B|-------------------------------- G|-------------------------------- D|-------------2-2------3------3-- A|-------------2-2------3------3-- E|-0-0-0-0-0-0------1-1-1--1-1-1-- P.M . . . . . . . . E|--------- B|--------- G|--------- (3x) D|--------- A|--------- E|--------- E5 G5 E|-------------------------------- B|-------------------------------- G|-------------------------------- D|-------------2-2------5------5-- A|-------------2-2------5------5-- E|-0-0-0-0-0-0------3-3-3--3-3-3-- P.M . . . . . . . . E|--------- B|--------- G|--------- D|----5---- A|----5---- E|3-3-3---- . . E|-------------------------------- B|-------------------------------- G|-------------------------------- D|-----5-------------------------- A|-----5-------------------------- E|-3-3-3-------------------------- P.M E5 E|------------------------------- B|------------------------------- G|------------------------------- D|-------------2--------------2-- A|-------------2--------------2-- E|-0-0-0-0-0-0----0-0-0-0-0-0---- P.M . . . . . . . . . . F5 E|---------- B|---------- G|---------- D|----3----- A|----3----- E|0-0------- . . E5 E|-------------------------------- B|-------------------------------- G|-------------------------------- D|-------------------------------- A|-------------------------------- E|-0-0-0-0-0-0-0--0-0-0-0-0-0-0--- P.M . . . . . . . . . . . .
Composición: James Hetfield / Lars UlrichColaboración y revisión: Vinícius DiasRicardodavidHeldery más 6
videoclase One (aula de guitarra)

Utilizamos cookies e outras tecnologias semelhantes para melhorar e personalizar sua experiência de uso. Ao navegar nos produtos, você concorda com as condições descritas em nossa Política de Privacidade.