Enter Sandman

Metallica

B5
134
X244XX
C#5
134
X466XX
C5
134
X355XX
E5
12
022XXX
F#5
134
244XXX
F#m
34
244222
F5
134
133XXX
G5
134
355XXX
Tono: G
[Intro] 

(Guitarra 1) 

[Parte 1 de 5]

#1t1##1t2#E|----------------------------------------------------|
B|----------------------------------------------------|
G|-------0--------------0-----------------------------|
D|-----2--------2-----2-------2-----------------------|
A|----------1-0-----------1-0-------------------------|
E|-0---------------0----------------------------------|#/1t2##/1t1#

[Parte 2 de 5]

#2t1# E5
#2t2#E|----------------------------------------------------|
B|----------------------------------------------------|
G|----------------------------------------------------|
D|----------------------------------------------------|
A|-/7-------------------------------------------------|
E|----0-0-0-0-0-0-0-----------------------------------|
      P.M..........#/2t2##/2t1#

[Parte 3 de 5]

#3t1##3t2#E|----------------------------------------------------|
B|----------------------------------------------------|
G|----------------------------------------------------|
D|----------------------------------------------------|
A|-/7---------------/7--------------------------------|
E|----0-0-0-0-0-0-0-----------------------------------|
      P.M..........#/3t2##/3t1#

[Parte 4 de 5]

#4t1#                F5
#4t2#E|----------------------------------------------------|
B|----------------------------------------------------|
G|----------------------------------------------------|
D|----------------------------------------------------|
A|------7---------3-----------------------------------|
E|-0--0---6-0-0-0-1-----------------------------------|#/4t2##/4t1#
            BP.M..

[Parte 5 de 5]

#5t1#               F5
#5t2#E|----------------------------------------------------|
B|----------------------------------------------------|
G|----------------------------------------------------|
D|----------------------------------------------------|
A|---7------------3-----------------------------------|
E|--| —0----6-5-0-0-1-----------------------------------|#/5t2##/5t1#

[Parte 5 de 5] (Variação)

#6t1##6t2#E|----------------------------------------------------|
B|----------------------------------------------------|
G|----------------------------------------------------|
D|----------------------------------------------------|
A|------7---------------------------------------------|
E|-0| —0----6-5-0-0-------------------------------------|#/6t2##/6t1#

[Intro 2] 

[Parte 1  de 2]

#7t1#   E5
#7t2#E|----------------------------------------------------|
B|----------------------------------------------------|
G|----------------------------------------------------|
D|------------x---------------------------------------|
A|-2---/7-----x---2---/7-----x-2----/7----------------|
E|-0-0----6-5-x---0-0----6-5-x-0-0--------------------|#/7t2##/7t1#

[Parte 2 de 2]

#8t1#            G5   F#5   G5 F#5
#8t2#E|----------------------------------------------------|
B|----------------------------------------------------|
G|----------------------------------------------------|
D|------x---------------------------------------------|
A|------x-----5----4---4-5--4-------------------------|
E|--6-5-x-0---3| —0--2-0-2-3--2-------------------------|#/8t2##/8t1#

[Parte 2 de 2] (Variação)

#9t1#          G5   F#5   G5 F#5
#9t2#E|----------------------------------------------------|
B|----------------------------------------------------|
G|----------------------------------------------------|
D|------x---------------------------------------------|
A|------x---5----4---4-5--4---------------------------|
E|--6-5-x---3| —0--2-0-2-3--2---------------------------|#/9t2##/9t1#

[Primeira Parte]

[Parte 1 de 2]

#10t1#                 F5              F5
#10t2#E|----------------------------------------------------|
B|----------------------------------------------------|
G|----------------------------------------------------|
D|----------------------------------------------------|
A|---------------3---------------3--------------------|
E|-0| —0-0-0-0-0-0-1-0—0-0-0-0-0-0-1--0—0-0-------------|#/10t2##/10t1#

[Parte 2 de 2]

#11t1#             G5   F#5   G5 F#5
#11t2#E|----------------------------------------------------|
B|----------------------------------------------------|
G|----------------------------------------------------|
D|----------------------------------------------------|
A|-----------5----4---4-5--4--------------------------|
E|--0-0-0-0--3| —0--2-0-2-3--2--------------------------|#/11t2##/11t1#

E5                          F5
   Say your prayers, little one
                  F5
Don't forget, my son
                G5  F#5 G5 F#5
To include everyone
E5                       F5
   Tuck you in, warm within
                    F5
Keep you free from sin
                      G5  F#5 G5 F#5
Till the Sandman, he comes

Yeah!

[Segunda Parte]

#12t1# F#m
#12t2#E|----------------------------------------------------|
B|----------------------------------------------------|
G|-------2--------------2-----------------------------|
D|-----4--------4-----4-------4-----------------------|
A|----------3-2-----------3-2-------------------------|
E|-2---------------2----------------------------------|#/12t2##/12t1#

  F#m
Sleep with one eye open

Gripping your pillow tight

[Refrão - Parte 1 de 4]

#13t1#F#5      C5 B5
#13t2#E|----------------------------------------------------|
B|----------------------------------------------------|
G|----------------------------------------------------|
D|----------5--4--4-----------------------------------|
A|-4--4--4--3--2--2-----------------------------------|
E|-2-| —2—-2--------------------------------------------|#/13t2##/13t1#

[Parte 1 de 4] (Variação)

#14t1# F#5     C#5 C5 B5
#14t2#E|----------------------------------------------------|
B|----------------------------------------------------|
G|----------------------------------------------------|
D|---------6---5--4--4--------------------------------|
A|-4--4--4-4---3--2--2--------------------------------|
E|-2-| —2—-2--------------------------------------------|#/14t2##/14t1#

[Parte 2 de 4]

#15t1# F#5      C5 B5
#15t2#E|----------------------------------------------------|
B|----------------------------------------------------|
G|-------------------------------4-0------------------|
D|----------5--4--4----2-5-2-5-2----------------------|
A|-4--4--4--3--2--2-2---------------------------------|
E|-2--2--2----------0---------------------------------|#/15t2##/15t1#

[Parte 3 de 4]

#16t1# F#5      C5 B5
#16t2#E|----------------------------------------------------|
B|----------------------------------------------------|
G|-------------------------------2--------------------|
D|----------5--4--4----2-5-2-5-2---2------------------|
A|-4--4--4--3--2--2--2--------------------------------|
E|-2--2| —-2-----------0--------------------------------|#/16t2##/16t1#

[Parte 4 de 4]

#17t1# G5   F#5   G5 F#5
#17t2#E|----------------------------------------------------|
B|----------------------------------------------------|
G|----------------------------------------------------|
D|----------------------------------------------------|
A|-5----4---4-5--4------------------------------------|
E|-3| —0--2-0-2-3--2------------------------------------|#/17t2##/17t1#

F#5 C5 B5  
  Exit   
 F#5  C5 B5
Light

F#5 C5 B5  
Enter      
 E5
Night
 F#5 C5 B5  E5
Take my    hand
 G5   F#5     G5  F#5  E5
We're off to never    land

[Primeira Parte]

E5                            F5
 Something's wrong, shut the light
                  F5
Heavy thoughts tonight
                          G5  F#5 G5 F#5
And they aren't of snow white

Dreams of war
            F5
Dreams of liars
                    F5
Dreams of dragon's fire
                         G5  F#5 G5 F#5
And of things that will bite

Yeah!

[Segunda Parte]

  F#m
Sleep with one eye open

Gripping your pillow tight

[Refrão]

F#5 C5 B5  
  Exit   
 F#5  C5 B5
Light

F#5 C5 B5  
Enter      
 E5
Night
 F#5 C5 B5  E5
Take my    hand
 G5   F#5     G5  F#5  E5
We're off to never    land

[Solo]

[Parte 1 de 15]

#18t1##18t2#E|----------------------------------------------------|
B|-15-----15--15--12--15-----15---15-------15b-15b17--|
G|-14b16| —b16-b16r-14b-14b16-b16--b16r14p12------------|
D|----------------------------------------------------|
A|----------------------------------------------------|
E|----------------------------------------------------|#/18t2##/18t1#

[Parte 2 de 15]

#19t1##19t2#E|----------------------------------------------------|
B|----------------------------------------------------|
G|-12/14-14-14-14\12-12-12-12/14-14-14-14\12-12-12----|
D|----------------------------------------------------|
A|-10/12-12-12-12\10-10-10-10/12-12-12-12\10-10-10----|
E|----------------------------------------------------|#/19t2##/19t1#

#20t1#[Parte 3 de 15]
#20t2#E|----------------------------------------------------|
B|----------------------------------------------------|
G|-14p12----------------------------------------------|
D|-------14-14p12-------------------------------------|
A|----------------14-14p12----------------------------|
E|--------------------------15--12~~\-----------------|#/20t2##/20t1#

[Parte 4 de 15]

#21t1##21t2#E|-----12-12-----12-12------12-12-----12-12-----12----|
B|-15b-------15b-------15b--------15b-------15b-------|
G|----------------------------------------------------|
D|----------------------------------------------------|
A|----------------------------------------------------|
E|----------------------------------------------------|#/21t2##/21t1#

[Parte 4 de 15]

#22t1##22t2#E|-----12-12-----12-12-----12-12-----12-12-----12-12--|
B|-15b-------15b-------15b-------15b-------15b--------|
G|----------------------------------------------------|
D|----------------------------------------------------|
A|----------------------------------------------------|
E|----------------------------------------------------|#/22t2##/22t1#

[Parte 5 de 15]

#23t1##23t2#E|-12h15p12----12h15p12----12h15p12----12h15p12-------|
B|----------15----------15----------15----------------|
G|----------------------------------------------------|
D|----------------------------------------------------|
A|----------------------------------------------------|
E|----------------------------------------------------|#/23t2##/23t1#

[Parte 6 de 15]

#24t1##24t2#E|----12h15/17p14----17p14----14p17/19p15-------------|
B|-15-------------15-------15-------------------------|
G|----------------------------------------------------|
D|----------------------------------------------------|
A|----------------------------------------------------|
E|----------------------------------------------------|#/24t2##/24t1#

[Parte 7 de 15]

#25t1##25t2#E|----19p15----15h19/22p15-0--22p15-0-22p15--22b24----|
B|-17-------17----------------------------------------|
G|----------------------------------------------------|
D|----------------------------------------------------|
A|----------------------------------------------------|
E|----------------------------------------------------|#/25t2##/25t1#

[Parte 8 de 15]

#26t1##26t2#E|----------------------------------------------------|
B|-10b--10b-10b-10b--10b-----------10~-10-8p7---8p7---|
G|--9b---9b--9b--9b---9b-7-------7------------9-------|
D|-------------------------9-7h9----------------------|
A|----------------------------------------------------|
E|----------------------------------------------------|#/26t2##/26t1#

[Parte 9 de 15]

#27t1##27t2#E|----------------------------------------------------|
B|---7------------------------------------------------|
G|-9---9p7---7-9p7-7----------------------------------|
D|---------9---------9p7---7-9p7----------------------|
A|-----------------------9-------9p8p7----------------|
E|-------------------------------------10-7-5---------|#/27t2##/27t1#

[Parte 10 de 15]

#28t1##28t2#E|----------------------------------------------------|
B|----------------------------------------------------|
G|-16b18-14----14-16-16b18-14----14-16-16b18-14-------|
D|----------16----------------16----------------16----|
A|----------------------------------------------------|
E|----------------------------------------------------|#/28t2##/28t1#

[Parte 11 de 15]
                                        v v v v v
#29t1##29t2#E|----------------------------------------------------|
B|-------17-------17-17----17--17-----16--------------|
G|-16b18----16b18----16b18-----16b18r-----------------|
D|----------------------------------------------------|
A|----------------------------------------------------|
E|----------------------------------------------------|#/29t2##/29t1#

[Parte 12 de 15]

#30t1##30t2#E|-21p17---21p17---21p17---21p17---21p17---21p17------|
B|------17------17------17------17------17------17----|
G|----------------------------------------------------|
D|----------------------------------------------------|
A|----------------------------------------------------|
E|----------------------------------------------------|#/30t2##/30t1#

[Parte 13 de 15]

#31t1##31t2#E|-22fb--21-22--22fb--21-22-22fb~~~~~--22\------------|
B|----------------------------------------------------|
G|----------------------------------------------------|
D|----------------------------------------------------|
A|----------------------------------------------------|
E|----------------------------------------------------|#/31t2##/31t1#

[Parte 14 de 15]

#32t1##32t2#E|----------------------------------------------------|
B|-10p9p8p7-------------------------------------------|
G|----------9-9p7-------------------------------------|
D|----------------9-9p7-5--7b9---5~~------------------|
A|---------------------------------7~~~-5h7-4---------|
E|----------------------------------------------------|#/32t2##/32t1#

[Parte 15 de 15]

#33t1##33t2#E|----------------------------------------------------|
B|----------------------------------------------------|
G|----------------------------------------------------|
D|----------------------------------------------------|
A|-4~-----------0--2--2--2--2--2--2--2--2--2--2--2----|
E|----------------------------------------------------|#/33t2##/33t1#

[Terceira Parte]

#34t1##34t2#E|----------------------------------------------------|
B|----------------------------------------------------|
G|---------14-----------------------------------------|
D|--16--16--------------------------------------------|
A|----------------------------------------------------|
E|----------------------------------------------------|#/34t2##/34t1#

#35t1##35t2#E|----------------------------------------------------|
B|----------------------------------------------------|
G|----------------------------------------------------|
D|-------------------------4---4----------------------|
A|-4-4-4-4-4-4-4-4-4-4-4-4-4-4-4-2--------------------|
E|-2-2-2-2-2-2-2-2-2-2-2-2-2-2-2-0--------------------|#/35t2##/35t1#


Now I lay me down to sleep

Pray the lord my soul to keep

If I die before I wake

Pray the lord my soul to take

(Guitarra 2)

#36t1##36t2#E|----------------------------------------------------|
B|----------------------------------------------------|
G|---------12-----------------------------------------|
D|--14--14--------------------------------------------|
A|----------------------------------------------------|
E|----------------------------------------------------|#/36t2##/36t1#

Hush little baby, don't say a word

And never mind that noise you heard

It's just the beast under your bed

In your closet, in your head

[Refrão]

F#5 C5 B5  
  Exit   
 F#5  C5 B5
Light

F#5 C5 B5  
Enter      
 E5
Night
 F#5 C5 B5  E5
Take my    hand

F#5 C5 B5  
  Exit   
 F#5  C5 B5
Light

F#5 C5 B5  
Enter      
 E5
Night
 F#5 C5 B5  E5
Take my    hand
 G5   F#5     G5  F#5  E5
We're off to never    land

[Final]

[Parte 1 de 6]

#37t1##37t2#E|----------------------------------------------------|
B|----------------------------------------------------|
G|----------------------------------------------------|
D|----------------------------------------------------|
A|-2---2-2---/7---------2---/7------------------------|
E|-0---0-0-0----6-5--0--0-0----6-5--0-----------------|#/37t2##/37t1#

[Parte 2 de 6] (2x)

#38t1##38t2#E|----------------------------------------------------|
B|----------------------------------------------------|
G|----------------------------------------------------|
D|----------------------------------------------------|
A|-2-2---/7---------2---/7----------------------------|
E|-0-0-0----6-5--0--0-0----6-5--0---------------------|#/38t2##/38t1#

[Parte 3 de 6] (2x)

#39t1##39t2#E|----------------------------------------------------|
B|----------------------------------------------------|
G|----------------------------------------------------|
D|----------------------------------------------------|
A|-2---/7---------5---4---4-5-4-----------------------|
E|-0-0----6-5--0--3-0-2-0-2-3-2-----------------------|#/39t2##/39t1#

[Parte 4 de 6] (4x)

#40t1#                 F5
#40t2#E|----------------------------------------------------|
B|----------------------------------------------------|
G|----------------------------------------------------|
D|----------------------------------------------------|
A|------/7---0-----3----------------------------------|
E|-0| —0-----6---0-0-1----------------------------------|#/40t2##/40t1#

#41t1#[Parte 5 de 6] (4x)
                F5
#41t2#E|----------------------------------------------------|
B|----------------------------------------------------|
G|----------------------------------------------------|
D|----------------------------------------------------|
A|------7---------3-----------------------------------|
E|-0| —0----6-0-0-0-1-----------------------------------|#/41t2##/41t1#

[Parte 6 de 6] (4x)

#42t1##42t2#E|----------------------------------------------------|
B|----------------------------------------------------|
G|----------------------------------------------------|
D|----------------------------------------------------|
A|------/7--------------------------------------------|
E|-0| —0-----0-0-0-0-0----------------------------------|#/42t2##/42t1#
Composición: James Hetfield / Jason Newsted / Kirk Hammett / Lars UlrichColaboración y revisión: Getúlio VasconcelosTarsius LimaMatheus Holender
videoclase Enter Sandman (aula de guitarra)