Babe I'm Gonna Leave You

Led Zeppelin

Tono: G
 WARNING: If you really want to 
learn this song, watch out
all minor changes in the main verse,
 and if I did any error,
please contact me in my e-mail 
TheLizzard_Hendrix@hotmail.com.
P.S.: The lyrics are not 100% right 
(the song too, thought),
cause I'm lazzy and don't want to 
look for the lyrics, but...
whatever, what real matter is the 
song, anyway, in any case
I hope you enjoy it...
                         Iguana

                Notation for solos:
(R) - Rake
 h  - Hammer on
 p  - Pull off
 ~  - Tremolo pickin
hb  - Half bend
fb  - full bend

 Intro: (Without vocals)


E|-------0-----------------------
B|---------------1-------3-------
G|-----2-------2-------0-------0-
D|---2-------2-------2-------2---
A|-0-------0---------------------
E|-----------------3-------3-----

E|-----------------------------------| 
B|1-------3-------1-------1-------0--| 
G|------2-------2-------2-------1----| 
D|----0-------0-------3-------2------| 
A|-----------------------------------| 
E|--2-------2-------1-------0--------| 



E|-------3-------0-------3-------
B|-------------------------------
G|-----2-------2-------0-------0-
D|---2-------2-------2-------2---
A|-0-------0---------------------
E|-----------------3-------3-----

E|0----------------------------------| 
B|--------3-------1-------1-------0--| 
G|------2-------2-------2-------1----| 
D|----0-------0-------3-------2------| 
A|-----------------------------------| 
E|--2-------2-------1-------0--------| 


Verse 1:


E|-------3-------0---------------
B|-----------------------3-------
G|-----2-------2-------0-------0-
D|---2-------2-------2-------2---
A|-0-------0---------------------
E|-----------------3-------3-----

E|-----------------------------------| 
B|1-------3-------1-------1-------0--| 
G|------2-------2-------2-------1----| 
D|----0-------0-------3-------2------| 
A|-----------------------------------| 
E|--2-------2-------1-------0--------| 

  Baby...                           
           ...baby      baby    I´m 
gonna...


E|-------3-------0---------------
B|-----------------------3-------
G|-----2-------2-------0-------0-
D|---2-------2-------2-------2---
A|-0-------0---------------------
E|-----------------3-------3-----

E|-----------------------------------| 
B|1-------3-------1-------1-------0--| 
G|------2-------2-------2-------1----| 
D|----0-------0-------3-------2------| 
A|-----------------------------------| 
E|--2-------2-------1-------0--------| 

...live you...                      
                              I 
say...


E|-------3-------0---------------
B|-----------------------3-------
G|-----2-------2-------0-------0-
D|---2-------2-------2-------2---
A|-0-------0---------------------
E|-----------------3-------3-----

E|-----------------------------------| 
B|1-------3-------1-------1-------0--| 
G|------2-------2-------2-------1----| 
D|----0-------0-------3-------2------| 
A|-----------------------------------| 
E|--2-------2-------1-------0--------| 

  Baby...                           
                 ...you know I´m 
gonna...


E|-------3-------0-------3-------
B|-------------------------------
G|-----2-------2-------0-------0-
D|---2-------2-------2-------2---
A|-0-------0---------------------
E|-----------------3-------3-----

E|0----------------------------------| 
B|--------3-------1-------1-------0--| 
G|------2-------2-------2-------1----| 
D|----0-------0-------3-------2------| 
A|-----------------------------------| 
E|--2-------2-------1-------0--------| 

...leave you...                     
                  ... I'm ...


E|-------------------------------
B|-------3-------1-------3-------
G|-----2-------2-------1-------1-
D|---3-------3-------2-------2---
A|-------------------------------
E|-1-------1-------0-------0-----

E|-----------------------------------| 
B|0-------3-------1-------3-------0--| 
G|------2-------2-------1-------1----| 
D|----3-------3-------2-------2------| 
A|-----------------------------------| 
E|--1-------1-------0-------0--------| 

leave you when the summertime...    
           ...leave you when the 
summer


E|-------0-------0-------3-------
B|-------------------------------
G|-----2-------2-------0---------
D|---2-------2-------2-------2-2-
A|-0-------0---------------------
E|-----------------3-------3-----

E|0----------------------------------| 
B|--------1-------1-------1-------0--| 
G|------2-------2-------2-------1----| 
D|----0-------0-------3-------2------| 
A|-----------------------------------| 
E|--2-------2-------1-------0--------| 

...comes alone...              
...leave you when the summer comes 
alone...


Chorus 1:


E|---------0-----0--0------------
B|-1-11-0--1-----8--6------------
G|-2-22-0--2-----9--7------------
D|-2-22-0--2-----7--7--2-2-2-2-2-
A|-0-00----0-----0--0--0-0-0-0-0-
E|-------------------------------

E|--|    
B|--|    
G|--|    
D|2-| 4x 
A|0-|    
E|--|    



Verse 2:


E|-------------------------------
B|---------------1-------3-------
G|-----2-------2-------0-------0-
D|---2-------2-------2-------2---
A|-0-------0---------------------
E|-----------------3-------3-----

E|-----------------------------------| 
B|1-------1-------1-------1-------0--| 
G|------2-------2-------2-------1----| 
D|----0-------0-------3-------2------| 
A|-----------------------------------| 
E|--2-------2-------1-------0--------| 

...Baby    baby   baby   baby       
 baby        baaby            I 
wont...


E|-------3-------0---------------
B|-----------------------3-------
G|-----2-------2-------0-------0-
D|---2-------2-------2-------2---
A|-0-------0---------------------
E|-----------------3-------3-----

E|-----------------------------------| 
B|1-------3-------1-------1-------0--| 
G|------2-------2-------2-------1----| 
D|----0-------0-------3-------2------| 
A|-----------------------------------| 
E|--2-------2-------1-------0--------| 

... leeave you...                   
 ...I aint joke woman I got to ...



E|-------3-------0---------------
B|-----------------------3-------
G|-----2-------2-------0-------0-
D|---2-------2-------2-------2---
A|-0-------0---------------------
E|-----------------3-------3-----

E|-----------------------------------| 
B|1-------3-------1-------1-------0--| 
G|------2-------2-------2-------1----| 
D|----0-------0-------3-------2------| 
A|-----------------------------------| 
E|--2-------2-------1-------0--------| 

..ramble...                         
 ...ooooh yeah...


E|-------3-------0---------------
B|-----------------------3-------
G|-----2-------2-------0-------0-
D|---2-------2-------2-------2---
A|-0-------0---------------------
E|-----------------3-------3-----

E|-----------------------------------| 
B|1-------3-------1-------1-------0--| 
G|------2-------2-------2-------1----| 
D|----0-------0-------3-------2------| 
A|-----------------------------------| 
E|--2-------2-------1-------0--------| 

...      Baby       baby I'll leave 
the ^                 really got
riff 
1:-------------------------------> ^
Acustic guitar 2 as riff 1; E|-10-12-10-12--x-8h10p8-8-------- B|-x-----x-----------------1010~~- G|-x-----x------------------------ |(R)---(R)-----------------------| A|-------------------------------- E|-------------------------------- E|------------------------------- B|-------3-------1-------3------- G|-----2-------2-------1-------1- D|---3-------3-------2-------2--- A|------------------------------- E|-1-------1-------0-------0----- E|-----------------------------------| B|0-------3-------1-------3-------0--| G|------2-------2-------1-------1----| D|----3-------3-------2-------2------| A|-----------------------------------| E|--1-------1-------0-------0--------| ...ramble... ...I can hear a call in me the way E|-------0----------------------- B|---------------1-------3------- G|-----2-------2-------0-------0- D|---2-------2-------2-------2--- A|-0-------0--------------------- E|-----------------3-------3----- E|------------------------0----------| B|1-------1-------1---------------0--| G|------2-------2-------2-------1----| D|----0-------0-------3-------2------| A|-----------------------------------| E|--2-------2-------1-------0--------| ...you used to do... ...I can hear a call in me back... Chorus 2: E|---------0-----0--0------------ B|-1-11-0--1-----8--6------------ G|-2-22-0--2-----9--7------------ D|-2-22-0--2-----7--7--2-2-2-2-2- A|-0-00----0-----0--0--0-0-0-0-0- E|------------------------------- E|--| B|--| G|--| D|2-| 4x A|0-| E|--| Bridge: E|------------------------------- B|-------5-------8-------8------- G|-----4-------9-------7-------7- D|---2-------9-------7-------7--- A|-0-------0-------0-------0----- E|------------------------------- E|-----| B|6----| G|-----| D|-----| A|-----| 4x E|-----| Eletric / Acoustic riff: This part off music is made by a acoustic and eletric guitar at same time, the first time enters just eletric guitar, in second time, enters the acoustic: First part: (just eletric guitar) E|------------------------------- B|------------------------------- G|------------------------------- D|-7-7---5-7-7---5-5-0-4-5---4-4- A|-----7-5-7-7-------0----------- E|-5-5-5-3-5-5---3-3---2-3---2-2- E|-------------------| B|-------------------| G|-------------------| D|--3-4-4--333-0-2-2-| A|0-3----------0-2-2-| E|--1-2-2--111-0-0-0-| Second part: eletric & acoustic guitars: (3x) Eletric guitar: E|------------------------------- B|------------------------------- G|------------------------------- |7-7---5-7-7--5-5-0-4-5-5--4-4--- A|----7-5-7-7------0-----5------0 |5-5-5-3-5-5--3-3---2-3-3--2-2--- E|------------------| B|------------------| G|------------------| ||3-4-4--333-0-2-2-| A|-3----------0-2-2-| ||1-2-2--111-0-0-0-| Acoustic guitar: E|--------0----3-3-3---3----2-2-2 |1-1-1-0-1-1--1-1-1---1-1--1-1-1- |2-2-2-0-2-2--2-2-2-0-2-2--2-2-2- |2-2-2-0-2-2--x-x-x-0-x-x--0-0-0- |0-0-0---0-0--0-0-0---0-0--x-x-x- E|-------------3-3-3---3-3--2-2-2 E|---2-2--111---0-0-| ||--1-1--111-0-0-0-| ||0-2-2--222-0-1-1-| ||0-0-0--333-0-2-2-| ||0-x-x--333-0-2-2-| E|---2-2--111---0-0-| Final part: eletric & acoustic guitars: (2x) Eletric guitar: E|------------------------------- B|------------------------------- G|------------------------------- D|-3-3-0---3-3---2-2-2-0-2-2---3- A|-----0---------2-2-2-0-2-2----- E|-1-1---0-1-1---0-0-0---0-0---1- E|------------------------| B|------------------------| G|------------------------| D|3-0---3-3---2-2-2-0-2-2-| A|--0---------2-2-2-0-2-2-| E|1---0-1-1---0-0-0---0-0-| Acoustic guitar: E|-111----1-1------------0-0--- B|-111-0--1-1----0-0-0-0-0-0--- G|-222-0--2-2----1-1-1-0-1-1--- D|-333-0--3-3----2-2-2-0-2-2--- A|-333----3-3----2-2-2---2-2--- E|-111----1-1----0-------0-0--- E|111----1-1------------0-0-| B|111-0--1-1----0-0-0-0-0-0-| G|222-0--2-2----1-1-1-0-1-1-| D|333-0--3-3----2-2-2-0-2-2-| A|333----3-3----2-2-2---2-2-| E|111----1-1----0-------0-0-| Chorus 3: (Just acoustic guitar) E|---------0-----0--0------------ B|-1-11-0--1-----8--6------------ G|-2-22-0--2-----9--7------------ D|-2-22-0--2-----7--7--2-2-2-2-2- A|-0-00----0-----0--0--0-0-0-0-0- E|------------------------------- E|--| B|--| G|--| D|2-| 4x A|0-| E|--| Verse 3: All the back solos off third verse are made by a second acoustic guitar: First acoustic guitar: E|-------0------------------------ B|-----1----------1-------3------- G|---2----------2------0-------0-- D|-----------2-------2-------2---- A|-0-------0---------------------- E|-----------------3-------3------ E|---------------------------------- B|1-------3-------1-------1-------0- G|-----2-------2-------2-------1---- D|---0-------0-------3-------2------ A|---------------------------------- E|-2-------2-------1-------0-------- E|--------------------------- B|-----------5-6-8-6------5-- G|-------------------9p7p5-5- D|--------------------------- A|--------------------------- E|--------------------------- E|---------| B|---------| G|7h9p7p5--| D|-------7~| A|---------| E|---------| First acoustic guitar: E|-------3-------0--------------- B|-----------------------3------- G|-----2-------2-------0-------0- D|---2-------2-------2-------2--- A|-0-------0--------------------- E|-----------------3-------3----- E|-----------------------------------| B|1-------3-------1-------1-------0--| G|------2-------2-------2-------1----| D|----0-------0-------3-------2------| A|-----------------------------------| E|--2-------2-------1-------0--------| Second acoustic guitar: E|------------------------------- B|------------------------------- G|--------------------2--5~--2-5- D|------------------------------- A|------------------------------- E|------------------------------- E|---------------------------------- B|1-3-5----------35----------------- G|-----5p4p25p4p2------------------- D|-----------------3p2p03p2p00h2p0-3 A|---------------------------------- E|---------------------------------- ----------| ----------| ----------| ----------| 33h5p3-2--| --------5~| E|-------3-------0-------1------- B|------------------------------- G|-----2-------2-------0-------0- D|---2-------2-------2-------2--- A|-0-------0--------------------- E|-----------------3-------3----- E|0-------0---------------0----------| B|----------------3---------------0--| G|------2-------2-------2-------1----| D|----0-------0-------3-------2------| A|-----------------------------------| E|--2-------2-------1-------0--------| I know... I know... ...I know I nevernevernevernevergonna live you... E|------------------------------- B|-------1-------1-------1------- G|-----2-------2-------0-------0- D|---2-------2-------2-------2--- A|-0-------0--------------------- E|-----------------3-------3----- E|-----------------------------------| B|1-------1-------1-------1-------0--| G|------2-------2-------2-------1----| D|----0-------0-------3-------2------| A|-----------------------------------| E|--2-------2-------1-------0--------| baby... ... I gotta go off this place... E|-------3-------1-------0------- B|------------------------------- G|-----2-------2-------0-------0- D|---2-------2-------2-------2--- A|-0-------0--------------------- E|-----------------3-------3----- E|1-------0--------------------------| B|----------------3-------3-------0--| G|------2-------2-------2-------1----| D|----0-------0-------3-------2------| A|-----------------------------------| E|--2-------2-------1-------0--------| ...ooh I gotta get you yeah ooooooooh baby E|------------------------------- B|-------1-------1-------1------- G|-----2-------2-------0-------0- D|---2-------2-------2-------2--- A|-0-------0--------------------- E|-----------------3-------3----- E|-----------------------------------| B|1-------1-------1-------1-------0--| G|------2-------2-------2-------1----| D|----0-------0-------3-------2------| A|-----------------------------------| E|--2-------2-------1-------0--------| ...Baby baby baby baby Eletric riff: This time, Mr. Page just do 2 times and without acoustic guitar, just eletric: E|------------------------------- B|------------------------------- G|------------------------------- D|-7-7---5-7-7---5-5-0-4-5---4-4- A|-----7-5-7-7-------0----------- E|-5-5-5-3-5-5---3-3---2-3---2-2- E|-------------------| B|-------------------| (2x) G|-------------------| D|--3-4-4--333-0-2-2-| A|0-3----------0-2-2-| E|--1-2-2--111-0-0-0-| Now, back again to the acustic guitar, but the back solos this time are made by an eletric guitar: Acoustic guitar( just acoustic) E|-------0----------------------- B|---------------1-------3------- G|-----2-------2-------0-------0- D|---2-------2-------2-------2--- A|-0-------0--------------------- E|-----------------3-------3----- E|-----------------------------------| B|1-------1-------1-------1-------0--| G|------2-------2-------2-------1----| D|----0-------0-------3-------2------| A|-----------------------------------| E|--2-------2-------1-------0--------| ... woman... Acoustic guitar E|-------3-------1-------0------- B|------------------------------- G|-----2-------2-------0-------0- D|---2-------2-------2-------2--- A|-0-------0--------------------- E|-----------------3-------3----- E|1-------0---------------0-------0--| B|----------------3------------------| G|------2-------2-------2-------1----| D|----0-------0-------3-------2------| A|-----------------------------------| E|--2-------2-------1-------0--------| ...Woman I know I know Eletric guitar E|--------------17hb17hb17hb------ B|-------------------------------- G|-------------------------------- D|-------------------------------- A|-------------------------------- E|-------------------------------- E|-------------------------| B|-------------------------| G|12fb12fb12fb12fb12fb12fb~| D|-------------------------| A|-------------------------| E|-------------------------| Acoustic guitar E|-------3-------1-------1------- B|------------------------------- G|-----2-------2-------0-------0- D|---2-------2-------2-------2--- A|-0-------0--------------------- E|-----------------3-------3----- E|0-------0---------------0-------0--| B|----------------3------------------| G|------2-------2-------2-------1----| D|----0-------0-------3-------2------| A|-----------------------------------| E|--2-------2-------1-------0--------| ...Isgoodto haveyouback again andIknowthat onedaybaby its allright Eletric guitar E|--------------------| B|--------------------| G|14fb~~~~14fb14fb~~~~| D|--------------------| A|--------------------| E|--------------------| Acoustic guitar( just acoustic) E|-------3-------1-------0------- B|------------------------------- G|-----2-------2-------0-------0- D|---2-------2-------2-------2--- A|-0-------0--------------------- E|-----------------3-------3----- E|1-------0--------------------------| B|----------------3-------1-------0--| G|------2-------2-------2-------1----| D|----0-------0-------3-------2------| A|-----------------------------------| E|--2-------2-------1-------0--------| Eletric/ acoustic riff: Eletric & acoustic guitars together: (2x) Eletric guitar: E|------------------------------- B|------------------------------- G|------------------------------- |7-7---5-7-7--5-5-0-4-5-5--4-4--- A|----7-5-7-7------0-----5------0 |5-5-5-3-5-5--3-3---2-3-3--2-2--- E|------------------| B|------------------| G|------------------| ||3-4-4--333-0-2-2-| A|-3----------0-2-2-| ||1-2-2--111-0-0-0-| Acoustic guitar: E|--------0----3-3-3---3----2-2-2 |1-1-1-0-1-1--1-1-1---1-1--1-1-1- |2-2-2-0-2-2--2-2-2-0-2-2--2-2-2- |2-2-2-0-2-2--x-x-x-0-x-x--0-0-0- |0-0-0---0-0--0-0-0---0-0--x-x-x- E|-------------3-3-3---3-3--2-2-2 E|---2-2--111---0-0-| ||--1-1--111-0-0-0-| ||0-2-2--222-0-1-1-| ||0-0-0--333-0-2-2-| ||0-x-x--333-0-2-2-| E|---2-2--111---0-0-| Final verse: This part is made by 2 acoustic guitars to: First acoustic guitar: E|-------0----------------------- B|---------------1-------3------- G|-----2-------2-------0-------0- D|---2-------2-------2-------2--- A|-0-------0--------------------- E|-----------------3-------3----- E|-----------------------------------| B|1-------3-------1-------1-------0--| G|------2-------2-------2-------1----| D|----0-------0-------3-------2------| A|-----------------------------------| E|--2-------2-------1-------0--------| Second acoustic guitar: E|------------------8108--7-8-10- B|------------------x------------ G|------------------x------------ D|-----------------(| R)--------- A|------------------------------- E|------------------------------- E|8-7-------------------------------------| B|---10-7-9-10-77~---x--------------------| G|-------------------5h7-5-454---4--------| D|-------------------------------7---7------| A|-----------------------------------7~---| E|----------------------------------------| First acoustic guitar: E|-------3----------0------1----- B|------------------------------- G|-----2---------2-------0------- D|---2---------2-------2-------2- A|-0---------0------------------- E|-------------------3-------3--- E|--0-------0---------------0------- B|------------------3--------------- G|0-------2-------2-------2-------1- D|------0-------0-------3-------2--- A|---------------------------------- E|----2-------2-------1-------0----- 0-| --| --| --| --| --| Second acoustic guitar: E|-------------------------------- B|-------------------------------- G|-------------------------8hb8hb- D|-------------------------------- A|-------------------------------- E|-------------------------------- E|---------------------------------- B|---------------------------------- G|7~7~-----8hb7~7~-7p5h7~p5-87~----- D|---------------------------------- A|-----------------------------7~7~- E|---------------------------------- First acoustic guitar: E|-------3----------0------1----- B|------------------------------- G|-----2---------2-------0------- D|---2---------2-------2-------2- A|-0---------0------------------- E|-------------------3-------3--- E|--0-------0---------------0------- B|------------------3--------------- G|0-------2-------2-------2-------1- D|------0-------0-------3-------2--- A|---------------------------------- E|----2-------2-------1-------0----- --| 0-| --| --| --| --| Second acoustic guitar: E|------------------------------ B|------------------------------ G|-----------------------------0 D|-----------------------0--0h2- A|-------------------00h2------- E|------------------3----------- E|----------------------------------- B|----------------------------------- G|---0---------------------0----0---- D|0h2-0h2~-------------00h2--0h2---1- A|----------------------------------- E|----------------------------------- -----| -----| -----| 0-2--| ---00| -----| First acoustic guitar: E|------------------------------- B|-------1-------1-------1------- G|-----2-------2-------0-------0- D|---2-------2-------2-------2--- A|-0-------0--------------------- E|-----------------3-------3----- E|------------------------------------| B|1-------1-------1-------3-------0--| G|------2-------2-------2-------1----| D|----0-------0-------3-------2------| A|-----------------------------------| E|--2-------2-------1-------0--------| Second acoustic guitar: E|-----------------------10 B|-----------------------x- G|-----------------------x- D|----------------------(| A|------------------------- E|------------------------- E|-10-10-10-10-10-10-108--810877~~-----------| B|-x--x--x--x--x--x--x------------810877~~---| G|-x--x--x--x--x--x--x-----------------------| D|R)(R)(R)(R)(R)(R)(R)(R)----------------------| A|-------------------------------------------| E|-------------------------------------------| First acoustic guitar: E|------------------------------- B|-------1---------1-------3----- G|-----2---------2-------0------- D|---2---------2-------2-------2- A|-0---------0------------------- E|-------------------3-------3--- E|---------------------------------- B|--1-------1-------1-------1------- G|0-------2-------2-------2-------1- D|------0-------0-------3-------2--- A|---------------------------------- E|----2-------2-------1-------0----- ---| 0--| ---| ---| ---| ---| Second acoustic guitar: E|-------------------------------- B|--------------------101010~~---- G|-------------------------------- D|-------------------------------- A|-------------------------------- E|-------------------------------- Eletric & acoustic guitars together (last time, thank God) : (4x) Eletric guitar: E|------------------------------- B|------------------------------- G|------------------------------- |7-7---5-7-7--5-5-0-4-5-5--4-4--- A|----7-5-7-7------0-----5------0 |5-5-5-3-5-5--3-3---2-3-3--2-2--- E|------------------| B|------------------| G|------------------| ||3-4-4--333-0-2-2-| A|-3----------0-2-2-| ||1-2-2--111-0-0-0-| Acoustic guitar: E|--------0----3-3-3---3----2-2-2 |1-1-1-0-1-1--1-1-1---1-1--1-1-1- |2-2-2-0-2-2--2-2-2-0-2-2--2-2-2- |2-2-2-0-2-2--x-x-x-0-x-x--0-0-0- |0-0-0---0-0--0-0-0---0-0--x-x-x- E|-------------3-3-3---3-3--2-2-2 E|---2-2--111---0-0-| ||--1-1--111-0-0-0-| ||0-2-2--222-0-1-1-| ||0-0-0--333-0-2-2-| ||0-x-x--333-0-2-2-| E|---2-2--111---0-0-| On the last time, the eletric guitar just end with a F5, and its played with the first F on the final part: Final: just acoustic E|--1---------------------------- B|--1---------------------------- G|--2---------------------------- D|--3---------------------------- A|--3---------------------------- E|--1---------------------------- E|0-| B|0-| G|1-| D|2-| A|2-| E|0-| ...Thats when you call'me... E|--1----------------------------- B|--1----------------------------- G|--2----------------------------- D|--3----------------------------- A|--3----------------------------- E|--1----------------------------- E|----0--------------------| B|----0--------------------| G|----1--3h4~~~~p3h4p3h4p3-| D|----2--------------------| A|----2--------------------| E|----0--------------------| ...I sai'd Thats when you call'm E|--------5--------5---------5--- B|------5--------4---------3----- G|----2--------2---------2------- D|------------------------------- A|--4--------3-------2----------- E|-----------------------------6- e... E|-----5--------------0------------0-------5~~-| B|-------------0------------0-------------5----| G|---6-------5------5-----5------5-------5-----| D|7--------7------7-----7------7--------7------| A|-------------------------------------7-------| E|------------------------------------5--------|
Composición: Anne Bredon / Jimmy Page / Robert PlantColaboración y revisión: CarolinaGianluca Ravasio

Utilizamos cookies e outras tecnologias semelhantes para melhorar e personalizar sua experiência de uso. Ao navegar nos produtos, você concorda com as condições descritas em nossa Política de Privacidade.