Babe I'm Gonna Leave You

Led Zeppelin

Tono: G
 WARNING: If you really want to learn this music, watch out 
all minor changes in the main verse, and if I did any error,
please contact me in my e-mail TheLizzard_Hendrix@hotmail.com.
P.S.: The lirics are not 100% right (the music too, thought),
cause I'm lazzy and dont want to look for the lirics, but...
wathever, whats real matter is the music anyway, in any case
I hope you enjoy it...
                         Iguana

                Notation for solos:
(R) - Rake
 h  - Hammer on
 p  - Pull off
 ~  - Tremolo pickin
hb  - Half bend
fb  - full bend

 Intro: (Without vocals)

#1t1##1t2#|-------0----------------------------------------------------------|
|---------------1-------3-------1-------3-------1-------1-------0--|
|-----2-------2-------0-------0-------2-------2-------2-------1----|
|---2-------2-------2-------2-------0-------0-------3-------2------|
|-0-------0--------------------------------------------------------|
|-----------------3-------3-------2-------2-------1-------0--------|#/1t2##/1t1#

#2t1##2t2#|-------3-------0-------3-------0----------------------------------|
|---------------------------------------3-------1-------1-------0--|
|-----2-------2-------0-------0-------2-------2-------2-------1----|
|---2-------2-------2-------2-------0-------0-------3-------2------|
|-0-------0--------------------------------------------------------|
|-----------------3-------3-------2-------2-------1-------0--------|#/2t2##/2t1#
 
Verse 1:

#3t1##3t2#|-------3-------0--------------------------------------------------|
|-----------------------3-------1-------3-------1-------1-------0--|
|-----2-------2-------0-------0-------2-------2-------2-------1----|
|---2-------2-------2-------2-------0-------0-------3-------2------|
|-0-------0--------------------------------------------------------|
|-----------------3-------3-------2-------2-------1-------0--------|#/3t2##/3t1#
  Baby...                                      ...baby      baby    I´m gonna... 

#4t1##4t2#|-------3-------0--------------------------------------------------|
|-----------------------3-------1-------3-------1-------1-------0--|
|-----2-------2-------0-------0-------2-------2-------2-------1----|
|---2-------2-------2-------2-------0-------0-------3-------2------|
|-0-------0--------------------------------------------------------|
|-----------------3-------3-------2-------2-------1-------0--------|#/4t2##/4t1#
...live you...                                                    I say...

#5t1##5t2#|-------3-------0--------------------------------------------------|
|-----------------------3-------1-------3-------1-------1-------0--|
|-----2-------2-------0-------0-------2-------2-------2-------1----|
|---2-------2-------2-------2-------0-------0-------3-------2------|
|-0-------0--------------------------------------------------------|
|-----------------3-------3-------2-------2-------1-------0--------|#/5t2##/5t1#
  Baby...                                            ...you know I´m gonna... 

#6t1##6t2#|-------3-------0-------3-------0----------------------------------|
|---------------------------------------3-------1-------1-------0--|
|-----2-------2-------0-------0-------2-------2-------2-------1----|
|---2-------2-------2-------2-------0-------0-------3-------2------|
|-0-------0--------------------------------------------------------|
|-----------------3-------3-------2-------2-------1-------0--------|#/6t2##/6t1#
...leave you...                                       ... I'm ...

#7t1##7t2#|------------------------------------------------------------------|
|-------3-------1-------3-------0-------3-------1-------3-------0--|
|-----2-------2-------1-------1-------2-------2-------1-------1----|
|---3-------3-------2-------2-------3-------3-------2-------2------|
|------------------------------------------------------------------|
|-1-------1-------0-------0-------1-------1-------0-------0--------|#/7t2##/7t1#
leave you when the summertime...               ...leave you when the summer

#8t1##8t2#|-------0-------0-------3-------0----------------------------------|
|---------------------------------------1-------1-------1-------0--|
|-----2-------2-------0---------------2-------2-------2-------1----|
|---2-------2-------2-------2-2-----0-------0-------3-------2------|
|-0-------0--------------------------------------------------------|
|-----------------3-------3-------2-------2-------1-------0--------|#/8t2##/8t1#
...comes alone...              ...leave you when the summer comes alone...


Chorus 1:

#9t1##9t2#|---------0-----0--0--------------|
|-1-11-0--1-----8--6--------------|
|-2-22-0--2-----9--7--------------|
|-2-22-0--2-----7--7--2-2-2-2-2-2-| 4x
|-0-00----0-----0--0--0-0-0-0-0-0-|
|---------------------------------|#/9t2##/9t1#


Verse 2:

#10t1##10t2#|------------------------------------------------------------------|
|---------------1-------3-------1-------1-------1-------1-------0--|
|-----2-------2-------0-------0-------2-------2-------2-------1----|
|---2-------2-------2-------2-------0-------0-------3-------2------|
|-0-------0--------------------------------------------------------|
|-----------------3-------3-------2-------2-------1-------0--------|#/10t2##/10t1#
...Baby    baby   baby   baby        baby        baaby            I wont...  

#11t1##11t2#|-------3-------0--------------------------------------------------|
|-----------------------3-------1-------3-------1-------1-------0--|
|-----2-------2-------0-------0-------2-------2-------2-------1----|
|---2-------2-------2-------2-------0-------0-------3-------2------|
|-0-------0--------------------------------------------------------|
|-----------------3-------3-------2-------2-------1-------0--------|#/11t2##/11t1#
... leeave you...                    ...I aint joke woman I got to ...


#12t1##12t2#|-------3-------0--------------------------------------------------|
|-----------------------3-------1-------3-------1-------1-------0--|
|-----2-------2-------0-------0-------2-------2-------2-------1----|
|---2-------2-------2-------2-------0-------0-------3-------2------|
|-0-------0--------------------------------------------------------|
|-----------------3-------3-------2-------2-------1-------0--------|#/12t2##/12t1#
..ramble...                          ...ooooh yeah...

#13t1##13t2#|-------3-------0--------------------------------------------------|
|-----------------------3-------1-------3-------1-------1-------0--|
|-----2-------2-------0-------0-------2-------2-------2-------1----|
|---2-------2-------2-------2-------0-------0-------3-------2------|
|-0-------0--------------------------------------------------------|
|-----------------3-------3-------2-------2-------1-------0--------|#/13t2##/13t1#
...      Baby       baby I'll leave the ^                 really got
riff 1:-------------------------------> ^
Acustic guitar 2 as riff 1;
#14t1##14t2#|-10-12-10-12--x-8h10p8-8--------|
|-x-----x-----------------1010~~-|
|-x-----x------------------------|
|(R)---(R)-----------------------|
|--------------------------------|
|--------------------------------|#/14t2##/14t1#

#15t1##15t2#|------------------------------------------------------------------|
|-------3-------1-------3-------0-------3-------1-------3-------0--|
|-----2-------2-------1-------1-------2-------2-------1-------1----|
|---3-------3-------2-------2-------3-------3-------2-------2------|
|------------------------------------------------------------------|
|-1-------1-------0-------0-------1-------1-------0-------0--------|#/15t2##/15t1#
...ramble...                   ...I can hear a call in me the way

#16t1##16t2#|-------0-----------------------------------------------0----------|
|---------------1-------3-------1-------1-------1---------------0--|
|-----2-------2-------0-------0-------2-------2-------2-------1----|
|---2-------2-------2-------2-------0-------0-------3-------2------|
|-0-------0--------------------------------------------------------|
|-----------------3-------3-------2-------2-------1-------0--------|#/16t2##/16t1#
...you used to do...           ...I can hear a call in me back...

Chorus 2:


#17t1##17t2#|---------0-----0--0--------------|
|-1-11-0--1-----8--6--------------|
|-2-22-0--2-----9--7--------------|
|-2-22-0--2-----7--7--2-2-2-2-2-2-| 4x
|-0-00----0-----0--0--0-0-0-0-0-0-|
|---------------------------------|#/17t2##/17t1#


Bridge:

#18t1##18t2#|------------------------------------|
|-------5-------8-------8-------6----|
|-----4-------9-------7-------7------|
|---2-------9-------7-------7--------|
|-0-------0-------0-------0----------| 4x
|------------------------------------|#/18t2##/18t1#

 Eletric / Acoustic riff:

This part off music is made by a acoustic and eletric guitar at same time,
the first time enters just eletric guitar, in second time, enters the 
acoustic:

First part: (just eletric guitar)

#19t1##19t2#|--------------------------------------------------|
|--------------------------------------------------|
|--------------------------------------------------|
|-7-7---5-7-7---5-5-0-4-5---4-4---3-4-4--333-0-2-2-|
|-----7-5-7-7-------0-----------0-3----------0-2-2-|
|-5-5-5-3-5-5---3-3---2-3---2-2---1-2-2--111-0-0-0-|#/19t2##/19t1#

Second part: eletric & acoustic guitars: (3x)
 Eletric guitar:
#20t1##20t2#|-------------------------------------------------|
|-------------------------------------------------|
|-------------------------------------------------|
|7-7---5-7-7--5-5-0-4-5-5--4-4---3-4-4--333-0-2-2-|
|----7-5-7-7------0-----5------0-3----------0-2-2-|
|5-5-5-3-5-5--3-3---2-3-3--2-2---1-2-2--111-0-0-0-|#/20t2##/20t1#

#21t1# Acoustic guitar:
#21t2#|--------0----3-3-3---3----2-2-2---2-2--111---0-0-|
|1-1-1-0-1-1--1-1-1---1-1--1-1-1---1-1--111-0-0-0-|
|2-2-2-0-2-2--2-2-2-0-2-2--2-2-2-0-2-2--222-0-1-1-|
|2-2-2-0-2-2--x-x-x-0-x-x--0-0-0-0-0-0--333-0-2-2-|
|0-0-0---0-0--0-0-0---0-0--x-x-x-0-x-x--333-0-2-2-|
|-------------3-3-3---3-3--2-2-2---2-2--111---0-0-|#/21t2##/21t1#


Final part: eletric & acoustic guitars: (2x)

#22t1# Eletric guitar:
#22t2#|-------------------------------------------------------|
|-------------------------------------------------------|
|-------------------------------------------------------|
|-3-3-0---3-3---2-2-2-0-2-2---3-3-0---3-3---2-2-2-0-2-2-|
|-----0---------2-2-2-0-2-2-------0---------2-2-2-0-2-2-|
|-1-1---0-1-1---0-0-0---0-0---1-1---0-1-1---0-0-0---0-0-|#/22t2##/22t1#

#23t1# Acoustic guitar:
#23t2#|-111----1-1------------0-0---111----1-1------------0-0-|
|-111-0--1-1----0-0-0-0-0-0---111-0--1-1----0-0-0-0-0-0-|
|-222-0--2-2----1-1-1-0-1-1---222-0--2-2----1-1-1-0-1-1-|
|-333-0--3-3----2-2-2-0-2-2---333-0--3-3----2-2-2-0-2-2-|
|-333----3-3----2-2-2---2-2---333----3-3----2-2-2---2-2-|
|-111----1-1----0-------0-0---111----1-1----0-------0-0-|#/23t2##/23t1#

Chorus 3: (Just acoustic guitar)

#24t1##24t2#|---------0-----0--0--------------|
|-1-11-0--1-----8--6--------------|
|-2-22-0--2-----9--7--------------|
|-2-22-0--2-----7--7--2-2-2-2-2-2-| 4x
|-0-00----0-----0--0--0-0-0-0-0-0-|
|---------------------------------|#/24t2##/24t1#

Verse 3: All the back solos off third verse are made by a second acoustic guitar: 
 First acoustic guitar:
#25t1##25t2#|-------0----------------------------------------------------------|
|-----1----------1-------3-------1-------3-------1-------1-------0-|
|---2----------2------0-------0-------2-------2-------2-------1----|
|-----------2-------2-------2-------0-------0-------3-------2------|
|-0-------0--------------------------------------------------------|
|-----------------3-------3-------2-------2-------1-------0--------|#/25t2##/25t1#
#26t1# Second acoustic guitar:
#26t2#|--------------------------------------------------------------------|
|-------------------------------------------5-6-8-6------5-----------|
|---------------------------------------------------9p7p5-5-7h9p7p5--|
|------------------------------------------------------------------7~|
|--------------------------------------------------------------------|
|--------------------------------------------------------------------|#/26t2##/26t1#

#27t1#  First acoustic guitar:
#27t2#|-------3-------0--------------------------------------------------|
|-----------------------3-------1-------3-------1-------1-------0--|
|-----2-------2-------0-------0-------2-------2-------2-------1----|
|---2-------2-------2-------2-------0-------0-------3-------2------|
|-0-------0--------------------------------------------------------|
|-----------------3-------3-------2-------2-------1-------0--------|#/27t2##/27t1#
#28t1#  Second acoustic guitar:
#28t2#|---------------------------------------------------------------------------|
|-------------------------------1-3-5----------35---------------------------|
|--------------------2--5~--2-5------5p4p25p4p2-----------------------------|
|------------------------------------------------3p2p03p2p00h2p0-3----------|
|-----------------------------------------------------------------33h5p3-2--|
|-------------------------------------------------------------------------5~|#/28t2##/28t1#

#29t1##29t2#|-------3-------0-------1-------0-------0---------------0----------|
|-----------------------------------------------3---------------0--|
|-----2-------2-------0-------0-------2-------2-------2-------1----|
|---2-------2-------2-------2-------0-------0-------3-------2------|
|-0-------0--------------------------------------------------------|
|-----------------3-------3-------2-------2-------1-------0--------|#/29t2##/29t1#
      I know...        I know...    ...I know I nevernevernevernevergonna live you...

#30t1##30t2#|------------------------------------------------------------------|
|-------1-------1-------1-------1-------1-------1-------1-------0--|
|-----2-------2-------0-------0-------2-------2-------2-------1----|
|---2-------2-------2-------2-------0-------0-------3-------2------|
|-0-------0--------------------------------------------------------|
|-----------------3-------3-------2-------2-------1-------0--------|#/30t2##/30t1#
baby...                                    ... I gotta go off this place...
 
#31t1##31t2#|-------3-------1-------0-------1-------0--------------------------|
|-----------------------------------------------3-------3-------0--|
|-----2-------2-------0-------0-------2-------2-------2-------1----|
|---2-------2-------2-------2-------0-------0-------3-------2------|
|-0-------0--------------------------------------------------------|
|-----------------3-------3-------2-------2-------1-------0--------|#/31t2##/31t1#
                        ...ooh I gotta get you yeah     ooooooooh baby

#32t1##32t2#|------------------------------------------------------------------|
|-------1-------1-------1-------1-------1-------1-------1-------0--|
|-----2-------2-------0-------0-------2-------2-------2-------1----|
|---2-------2-------2-------2-------0-------0-------3-------2------|
|-0-------0--------------------------------------------------------|
|-----------------3-------3-------2-------2-------1-------0--------|#/32t2##/32t1#
     ...Baby            baby           baby             baby

 Eletric riff:
 
 This time, Mr. Page just do 2 times and without acoustic guitar, just eletric:

#33t1##33t2#|--------------------------------------------------|
|--------------------------------------------------| (2x)
|--------------------------------------------------|
|-7-7---5-7-7---5-5-0-4-5---4-4---3-4-4--333-0-2-2-|
|-----7-5-7-7-------0-----------0-3----------0-2-2-|
|-5-5-5-3-5-5---3-3---2-3---2-2---1-2-2--111-0-0-0-|#/33t2##/33t1#

Now, back again to the acustic guitar, but the back solos this time
are made by an eletric guitar:

#34t1# Acoustic guitar( just acoustic)
#34t2#|-------0----------------------------------------------------------|
|---------------1-------3-------1-------1-------1-------1-------0--|
|-----2-------2-------0-------0-------2-------2-------2-------1----|
|---2-------2-------2-------2-------0-------0-------3-------2------|
|-0-------0--------------------------------------------------------|
|-----------------3-------3-------2-------2-------1-------0--------|#/34t2##/34t1#
                                          ... woman...
  Acoustic guitar
#35t1##35t2#|-------3-------1-------0-------1-------0---------------0-------0--|
|-----------------------------------------------3------------------|
|-----2-------2-------0-------0-------2-------2-------2-------1----|
|---2-------2-------2-------2-------0-------0-------3-------2------|
|-0-------0--------------------------------------------------------|
|-----------------3-------3-------2-------2-------1-------0--------|#/35t2##/35t1#
    ...Woman                    I know          I know
  Eletric guitar
#36t1##36t2#|--------------17hb17hb17hb----------------------------------------------------|
|------------------------------------------------------------------------------|
|-----------------------------------------------------12fb12fb12fb12fb12fb12fb~|
|------------------------------------------------------------------------------|
|------------------------------------------------------------------------------|
|------------------------------------------------------------------------------|#/36t2##/36t1#
#37t1#  Acoustic guitar
#37t2#|-------3-------1-------1-------0-------0---------------0-------0--|
|-----------------------------------------------3------------------|
|-----2-------2-------0-------0-------2-------2-------2-------1----|
|---2-------2-------2-------2-------0-------0-------3-------2------|
|-0-------0--------------------------------------------------------|
|-----------------3-------3-------2-------2-------1-------0--------|#/37t2##/37t1#
...Isgoodto haveyouback again andIknowthat onedaybaby its allright
  Eletric guitar
#38t1##38t2#|-----------------------------------------------------------------------|
|-----------------------------------------------------------------------|
|---------------------------------------------------14fb~~~~14fb14fb~~~~|
|-----------------------------------------------------------------------|
|-----------------------------------------------------------------------|
|-----------------------------------------------------------------------|#/38t2##/38t1#

#39t1#  Acoustic guitar( just acoustic)
#39t2#|-------3-------1-------0-------1-------0--------------------------|
|-----------------------------------------------3-------1-------0--|
|-----2-------2-------0-------0-------2-------2-------2-------1----|
|---2-------2-------2-------2-------0-------0-------3-------2------|
|-0-------0--------------------------------------------------------|
|-----------------3-------3-------2-------2-------1-------0--------|#/39t2##/39t1#
  
 Eletric/ acoustic riff:

 Eletric & acoustic guitars together: (2x)
 Eletric guitar:
#40t1##40t2#|-------------------------------------------------|
|-------------------------------------------------|
|-------------------------------------------------|
|7-7---5-7-7--5-5-0-4-5-5--4-4---3-4-4--333-0-2-2-|
|----7-5-7-7------0-----5------0-3----------0-2-2-|
|5-5-5-3-5-5--3-3---2-3-3--2-2---1-2-2--111-0-0-0-|#/40t2##/40t1#

#41t1# Acoustic guitar:
#41t2#|--------0----3-3-3---3----2-2-2---2-2--111---0-0-|
|1-1-1-0-1-1--1-1-1---1-1--1-1-1---1-1--111-0-0-0-|
|2-2-2-0-2-2--2-2-2-0-2-2--2-2-2-0-2-2--222-0-1-1-|
|2-2-2-0-2-2--x-x-x-0-x-x--0-0-0-0-0-0--333-0-2-2-|
|0-0-0---0-0--0-0-0---0-0--x-x-x-0-x-x--333-0-2-2-|
|-------------3-3-3---3-3--2-2-2---2-2--111---0-0-|#/41t2##/41t1#

Final verse: This part is made by 2 acoustic guitars to:

#42t1# First acoustic guitar:
#42t2#|-------0----------------------------------------------------------|
|---------------1-------3-------1-------3-------1-------1-------0--|
|-----2-------2-------0-------0-------2-------2-------2-------1----|
|---2-------2-------2-------2-------0-------0-------3-------2------|
|-0-------0--------------------------------------------------------|
|-----------------3-------3-------2-------2-------1-------0--------|#/42t2##/42t1#
#43t1# Second acoustic guitar:
#43t2#|------------------8108--7-8-10-8-7-------------------------------------|
|------------------x---------------10-7-9-10-77~---x--------------------|
|------------------x-------------------------------5h7-5-454---4--------|
|-----------------(R)----------------------------------------7---7------|
|------------------------------------------------------------------7~---|
|-----------------------------------------------------------------------|#/43t2##/43t1#

#44t1# First acoustic guitar:
#44t2#|-------3----------0------1-------0-------0---------------0-------0-|
|-------------------------------------------------3-----------------|
|-----2---------2-------0-------0-------2-------2-------2-------1---|
|---2---------2-------2-------2-------0-------0-------3-------2-----|
|-0---------0-------------------------------------------------------|
|-------------------3-------3-------2-------2-------1-------0-------|#/44t2##/44t1#
#45t1# Second acoustic guitar:
#45t2#|----------------------------------------------------------------------|
|----------------------------------------------------------------------|
|-------------------------8hb8hb-7~7~-----8hb7~7~-7p5h7~p5-87~---------|
|----------------------------------------------------------------------|
|-------------------------------------------------------------7~7~-----|
|----------------------------------------------------------------------|#/45t2##/45t1#

#46t1# First acoustic guitar:
#46t2#|-------3----------0------1-------0-------0---------------0---------|
|-------------------------------------------------3---------------0-|
|-----2---------2-------0-------0-------2-------2-------2-------1---|
|---2---------2-------2-------2-------0-------0-------3-------2-----|
|-0---------0-------------------------------------------------------|
|-------------------3-------3-------2-------2-------1-------0-------|#/46t2##/46t1#
#47t1# Second acoustic guitar:
#47t2#|----------------------------------------------------------------------|
|----------------------------------------------------------------------|
|-----------------------------0---0---------------------0----0---------|
|-----------------------0--0h2-0h2-0h2~-------------00h2--0h2---1-0-2--|
|-------------------00h2---------------------------------------------00|
|------------------3---------------------------------------------------|#/47t2##/47t1#

#48t1# First acoustic guitar:
#48t2#-------------------------------------------------------------------|
|-------1-------1-------1-------1-------1-------1-------3-------0--|
|-----2-------2-------0-------0-------2-------2-------2-------1----|
|---2-------2-------2-------2-------0-------0-------3-------2------|
|-0-------0--------------------------------------------------------|
|-----------------3-------3-------2-------2-------1-------0--------|#/48t2##/48t1#
#49t1# Second acoustic guitar:
#49t2#|-----------------------10-10-10-10-10-10-10-108--810877~~-----------|
|-----------------------x--x--x--x--x--x--x--x------------810877~~---|
|-----------------------x--x--x--x--x--x--x--x-----------------------|
|----------------------(R)(R)(R)(R)(R)(R)(R)(R)----------------------|
|--------------------------------------------------------------------|
|--------------------------------------------------------------------|#/49t2##/49t1#

#50t1# First acoustic guitar:
#50t2#|--------------------------------------------------------------------|
|-------1---------1-------3-------1-------1-------1-------1-------0--|
|-----2---------2-------0-------0-------2-------2-------2-------1----|
|---2---------2-------2-------2-------0-------0-------3-------2------|
|-0---------0--------------------------------------------------------|
|-------------------3-------3-------2-------2-------1-------0--------|#/50t2##/50t1#
#51t1# Second acoustic guitar:
#51t2#|---------------------------------|
|--------------------101010~~-----|
|---------------------------------|
|---------------------------------|
|---------------------------------|
|---------------------------------|#/51t2##/51t1#

Eletric & acoustic guitars together (last time, thank God) : (4x)
 Eletric guitar:
#52t1##52t2#|-------------------------------------------------|
|-------------------------------------------------|
|-------------------------------------------------|
|7-7---5-7-7--5-5-0-4-5-5--4-4---3-4-4--333-0-2-2-|
|----7-5-7-7------0-----5------0-3----------0-2-2-|
|5-5-5-3-5-5--3-3---2-3-3--2-2---1-2-2--111-0-0-0-|#/52t2##/52t1#

#53t1# Acoustic guitar:
#53t2#|--------0----3-3-3---3----2-2-2---2-2--111---0-0-|
|1-1-1-0-1-1--1-1-1---1-1--1-1-1---1-1--111-0-0-0-|
|2-2-2-0-2-2--2-2-2-0-2-2--2-2-2-0-2-2--222-0-1-1-|
|2-2-2-0-2-2--x-x-x-0-x-x--0-0-0-0-0-0--333-0-2-2-|
|0-0-0---0-0--0-0-0---0-0--x-x-x-0-x-x--333-0-2-2-|
|-------------3-3-3---3-3--2-2-2---2-2--111---0-0-|#/53t2##/53t1#

On the last time, the eletric guitar just end with a F5,
and its played with the first F on the final part:

#54t1#                 Final: just acoustic
#54t2#|--1----------------------------0-|
|--1----------------------------0-|
|--2----------------------------1-|
|--3----------------------------2-|
|--3----------------------------2-|
|--1----------------------------0-|#/54t2##/54t1#
#55t1#  ...Thats when you  call'me...
#55t2#|--1---------------------------------0--------------------|
|--1---------------------------------0--------------------|
|--2---------------------------------1--3h4~~~~p3h4p3h4p3-|
|--3---------------------------------2--------------------|
|--3---------------------------------2--------------------|
|--1---------------------------------0--------------------|#/55t2##/55t1#
#56t1# ...I sai'd Thats when you call'me...
#56t2#|--------5--------5---------5--------5--------------0------------0-------5~~-|
|------5--------4---------3------------------0------------0-------------5----|
|----2--------2---------2----------6-------5------5-----5------5-------5-----|
|-------------------------------7--------7------7-----7------7--------7------|
|--4--------3-------2------------------------------------------------7-------|
|-----------------------------6-------------------------------------5--------|#/56t2##/56t1#
Composición: Anne Bredon / Jimmy Page / Robert PlantColaboración y revisión: Gianluca Ravasio