All my Love

Led Zeppelin

C
123
X32010
C1
123
X32010
C2
34
X35533
Tono: G
1- ^ ligado
2- / slide              
3- b bend
4- ~ vibrato
5- x nota falsa 
6- * harmônico                                             
Intro.    
#1t1##1t2#E|-----------------8------------7-------------5-------------||
B|----------------------------------------------------------||
G|----------7/-9---------5/-7----------4/-5-----------------||
D|----------------------------------------------------------||
A|----------------------------------------------------------||
E|----------------------------------------------------------||         #/1t2##/1t1#
             
#2t1#Frase 1
#2t2#E|------5---3-------------------8---7-------5-----------7^-5-|
B|------5---3---6b---b6---------5---8-----------5------------|
G|--------------------------------------7-----------7--------|
D|-----------------------------------------------------------|
A|-----------------------------------------------------------|
E|-----------------------------------------------------------|#/2t2##/2t1#


#3t1##3t2#E|----------------------------------------------------------||
B|----10----10----------------------------------------------||
G|----9b----b9^--7------------------------------------------||
D|----------------------------------------------------------||
A|----------------------------------------------------------||
E|----------------------------------------------------------||#/3t2##/3t1#

#4t1#Ref.                         2x
#4t2#E|----------13---12---10---12-------10---8---10-------------||
B|----------------------------------------------------------||
G|----------14---12---10---12-------10---9---10-------------||
D|----------------------------------------------------------||
A|----------------------------------------------------------||
E|----------------------------------------------------------||#/4t2##/4t1#

#5t1#Arranjo Ref.
#5t2#E|----10---8---7---8--------1---3---5---5-------3---1---3----|
B|-----------------------------------------------------------|
G|----10---9---7---9--------2---4---5---5-------4---2---4----|
D|-----------------------------------------------------------|
A|-----------------------------------------------------------|
E|-----------------------------------------------------------|#/5t2##/5t1#

#6t1#C.C1
#6t2#E|----------------------------------------------------------||
B|----------------------------------------------------------||
G|----------------------------------------------------------||
D|-3---------------3---3---3---------------3---3---3-------5||
A|-1---3---3---3---1---1---1---3---3---3---1---1---1---3---3||
E|-----1---1---1---------------1---1---1---------------1----||#/6t2##/6t1#

#7t1#solo 1
#7t2#E|-----------------------------------------------------------|
B|-----------------------------------------------------------|
G|-----------------5-------5---7b---b7---5-------C.C1--------|
D|---------5---7-------7-------------------------------------|
A|-5^--7-----------------------------------------------------|
E|-----------------------------------------------------------|#/7t2##/7t1#

#8t1#solo 2
#8t2#E|-----------------------------------------------------------|
B|---------8b----b8------------------------------------------|
G|-----------------------7^---5-------7^---5-----------------|
D|--------------------------------7------------7-----C.C1----|
A|-----------------------------------------------------------|
E|-----------------------------------------------------------|#/8t2##/8t1#

#9t1#C.C2
#9t2#E|-----------------------------------------------------------|
B|-----------------------------------------------------------|
G|-----------------------------------------------------------|
D|-3---------------3---3---3---------------3---3---3-------7-|
A|-1---3---3---3---1---1---1---3---3---3---1---1---1---3---5-|
E|-----1---1---1---------------1---1---1---------------1-----|#/9t2##/9t1#


#10t1##10t2#E|-----------------------------5b-b5-------------------------|
B|-----8b-b8-------6b-b6-------------------8b-b8-------6b-b6-|
G|-0-----------0-----------0-----------0-----------0---------|
D|-0-----------0-----------0-----------0-----------0---------|
A|-----------------------------------------------------------|
E|-----------------------------------------------------------|#/10t2##/10t1#


#11t1##11t2#E|----------------------------------------------------------||
B|------3b----b3----3b----b3----3b--------------------------||
G|----------------------------------------------------------||
D|----------------------------------------------------------||
A|----------------------------------------------------------||
E|----------------------------------------------------------||#/11t2##/11t1#

#12t1#Solo Principal
#12t2#E|----------------------------------------------5---4---5----|
B|-------------------------------5---4---5-------------------|
G|-2---1---2------5---4---5----------------------------------|
D|-----------------------------------------------------------|
A|-----------------------------------------------------------|
E|-----------------------------------------------------------|#/12t2##/12t1#


#13t1##13t2#E|-7---5---4---5---8------7---5-----------------------------||
B|--------------------------------8---6---5~----------------||
G|----------------------------------------------------------||
D|----------------------------------------------------------||
A|----------------------------------------------------------||
E|----------------------------------------------------------||#/13t2##/13t1#


#14t1##14t2#E|-5--------------------------------------------|------------|
B|-----5-------3---5-------3--------------------|------------|
G|---------5-----------5-------5---4---2--------|---2---4----|
D|-----------------------------------------5----|------------|
A|----------------------------------------------|------------|
E|----------------------------------------------|------------|#/14t2##/14t1#


#15t1##15t2#E|----------------------------------|------------------------|
B|----------------------------------|------------------------|
G|-0---5---4---2--------------------|------2---2---1---2---4-|
D|-----------------5---4---2---0----|--2---------------------|
A|----------------------------------|------------------------|
E|----------------------------------|------------------------|#/15t2##/15t1#


#16t1##16t2#E|---------------------------------5-----4---5---7---5---4---|
B|---------------------5---4---5-----------------------------|
G|-2---4---5---4---5-----------------------------------------|
D|-----------------------------------------------------------|
A|-----------------------------------------------------------|
E|-----------------------------------------------------------|#/16t2##/16t1#

#17t1#                   3x
#17t2#E|-5---8---|---7---8---10---|------8---7--------------------||
B|---------|----------------|--------------10---8---10------||
G|---------|----------------|-------------------------------||
D|---------|----------------|-------------------------------||
A|---------|----------------|-------------------------------||
E|---------|----------------|-------------------------------||#/17t2##/17t1#


#18t1##18t2#E|----------7---8-----------7-------------------------------||
B|------------------10----------10---10---8---10------------||
G|----------------------------------------------------------||
D|----------------------------------------------------------||
A|----------------------------------------------------------||
E|----------------------------------------------------------||#/18t2##/18t1#


#19t1##19t2#E|---------------------------0------------------------------||
B|---------------0---1---5-------5---3---1---0--------------||
G|-----------2-----------------------------------2----------||
D|----------------------------------------------------------||
A|----------------------------------------------------------||
E|----------------------------------------------------------||#/19t2##/19t1#
Composición: John Paul Jones / Robert PlantColaboración y revisión: