All my Love

Led Zeppelin

C
123
X32010
C1
123
X32010
C2
34
X35533
Tono: G
1- ^ ligado
2- / slide
3- b bend
4- ~ vibrato
5- x nota falsa
6- * harmônico
Intro.

E|-----------------8------------7-
B|--------------------------------
G|----------7/-9---------5/-7-----
D|--------------------------------
A|--------------------------------
E|--------------------------------

E|------------5-------------||      
B|--------------------------||      
G|-----4/-5-----------------||      
D|--------------------------||      
A|--------------------------||      
E|--------------------------||      



Frase 1

E|------5---3-------------------8-
B|------5---3---6b---b6---------5-
G|--------------------------------
D|--------------------------------
A|--------------------------------
E|--------------------------------

E|--7-------5-----------7^-5-| 
B|--8-----------5------------| 
G|------7-----------7--------| 
D|---------------------------| 
A|---------------------------| 
E|---------------------------| 




E|--------------------------------
B|----10----10--------------------
G|----9b----b9^--7----------------
D|--------------------------------
A|--------------------------------
E|--------------------------------



Ref.                         2x
E|----------13---12---10---12-----
B|--------------------------------
G|----------14---12---10---12-----
D|--------------------------------
A|--------------------------------
E|--------------------------------

E|--10---8---10-------------|| 
B|--------------------------|| 
G|--10---9---10-------------|| 
D|--------------------------|| 
A|--------------------------|| 
E|--------------------------|| 



Arranjo Ref.
E|----10---8---7---8--------1---3-
B|--------------------------------
G|----10---9---7---9--------2---4-
D|--------------------------------
A|--------------------------------
E|--------------------------------

E|--5---5-------3---1---3----| 
B|---------------------------| 
G|--5---5-------4---2---4----| 
D|---------------------------| 
A|---------------------------| 
E|---------------------------| 


C.C1 E|-------------------------------- B|-------------------------------- G|-------------------------------- D|-3---------------3---3---3------ A|-1---3---3---3---1---1---1---3-- E|-----1---1---1---------------1-- E|--------------------------|| B|--------------------------|| G|--------------------------|| D|---------3---3---3-------5|| A|-3---3---1---1---1---3---3|| E|-1---1---------------1----|| solo 1 E|-------------------------------- B|-------------------------------- G|-----------------5-------5---7b- D|---------5---7-------7---------- A|-5^--7-------------------------- E|-------------------------------- E|---------------------------| B|---------------------------| G|--b7---5-------C.C1--------| D|---------------------------| A|---------------------------| E|---------------------------| solo 2 E|-------------------------------- B|---------8b----b8--------------- G|-----------------------7^---5--- D|-------------------------------- A|-------------------------------- E|-------------------------------- E|---------------------------| B|---------------------------| G|----7^---5-----------------| D|7------------7-----C.C1----| A|---------------------------| E|---------------------------| C.C2 E|-------------------------------- B|-------------------------------- G|-------------------------------- D|-3---------------3---3---3------ A|-1---3---3---3---1---1---1---3-- E|-----1---1---1---------------1-- E|---------------------------| B|---------------------------| G|---------------------------| D|---------3---3---3-------7-| A|-3---3---1---1---1---3---5-| E|-1---1---------------1-----| E|-----------------------------5b- B|-----8b-b8-------6b-b6---------- G|-0-----------0-----------0------ D|-0-----------0-----------0------ A|-------------------------------- E|-------------------------------- E|b5-------------------------| B|---------8b-b8-------6b-b6-| G|-----0-----------0---------| D|-----0-----------0---------| A|---------------------------| E|---------------------------| E|------------------------------ B|------3b----b3----3b----b3---- G|------------------------------ D|------------------------------ A|------------------------------ E|------------------------------ E|----------------------------|| B|3b--------------------------|| G|----------------------------|| D|----------------------------|| A|----------------------------|| E|----------------------------|| Solo Principal E|------------------------------- B|------------------------------- G|-2---1---2------5---4---5------ D|------------------------------- A|------------------------------- E|------------------------------- E|---------------5---4---5----| B|5---4---5-------------------| G|----------------------------| D|----------------------------| A|----------------------------| E|----------------------------| E|-7---5---4---5---8------7---5--- B|-------------------------------- G|-------------------------------- D|-------------------------------- A|-------------------------------- E|-------------------------------- E|--------------------------|| B|8---6---5~----------------|| G|--------------------------|| D|--------------------------|| A|--------------------------|| E|--------------------------|| E|-5------------------------------ B|-----5-------3---5-------3------ G|---------5-----------5-------5-- D|-------------------------------- A|-------------------------------- E|-------------------------------- E|--------------|------------| B|--------------|------------| G|-4---2--------|---2---4----| D|---------5----|------------| A|--------------|------------| E|--------------|------------| E|-------------------------------- B|-------------------------------- G|-0---5---4---2------------------ D|-----------------5---4---2---0-- A|-------------------------------- E|-------------------------------- E|--|------------------------| B|--|------------------------| G|--|------2---2---1---2---4-| D|--|--2---------------------| A|--|------------------------| E|--|------------------------| E|-------------------------------- B|---------------------5---4---5-- G|-2---4---5---4---5-------------- D|-------------------------------- A|-------------------------------- E|-------------------------------- E|-5-----4---5---7---5---4---| B|---------------------------| G|---------------------------| D|---------------------------| A|---------------------------| E|---------------------------| 3x E|-5---8---|---7---8---10---|----- B|---------|----------------|----- G|---------|----------------|----- D|---------|----------------|----- A|---------|----------------|----- E|---------|----------------|----- E|-8---7--------------------|| B|---------10---8---10------|| G|--------------------------|| D|--------------------------|| A|--------------------------|| E|--------------------------|| E|----------7---8-----------7--- B|------------------10---------- G|------------------------------ D|------------------------------ A|------------------------------ E|------------------------------ E|----------------------------|| B|10---10---8---10------------|| G|----------------------------|| D|----------------------------|| A|----------------------------|| E|----------------------------|| E|---------------------------0--- B|---------------0---1---5------- G|-----------2------------------- D|------------------------------- A|------------------------------- E|------------------------------- E|---------------------------|| B|5---3---1---0--------------|| G|----------------2----------|| D|---------------------------|| A|---------------------------|| E|---------------------------||
Composición: John Paul Jones / Robert PlantColaboración y revisión:

Utilizamos cookies e outras tecnologias semelhantes para melhorar e personalizar sua experiência de uso. Ao navegar nos produtos, você concorda com as condições descritas em nossa Política de Privacidade.