Small Bump

Ed Sheeran

B
234
X24442
C9
34
X35533
D
123
XX0232
D9/F#
123
2X0230
Em
12
022000
G
123
320003
Tono: G
Intro: Em           B                  C9              G
                       ^        ^
#1t1##1t2#E|-------------x-|-----0-x------0-x-|-------------x-|--------------|
B|-------------x-|-----0-x------0-x-|-------------x-|--------------|
G|-0---0-----0-x-|-0---0-x--0---0-x-|-0---0-----0-x-|-2/4---4\2--0-|
D|-2---2---2---x-|-4---4-x--0h2-2-x-|-0---0---0---x-|--------------|
A|-------2-----x-|-2---2-x--3---3-x-|-------2-----x-|--------------|
E|-0---x-------x-|-------x--------x-|-3---x-------x-|-3/5---5\3----|
                       ^        ^                         ^        ^#/1t2##/1t1#
#2t1##2t2#E|-------------x-|-----0-x------0-x-|-------------x-|-----3-x------0-x-|
B|-------------x-|-----0-x------0-x-|-------------x-|-----3-x--3---3-x-|
G|-0---0-----0-x-|-0---0-x--0---0-x-|-0---0-----0-x-|-0---0-x--2---2-x-|
D|-2---2---2---x-|-4---4-x--0h2-2-x-|-0---0---0---x-|-0---0-x------0-x-|
A|-------2-----x-|-2---2-x--3---3-x-|-------2-----x-|-----2-x------0-x-|
E|-0---x-------x-|-------x--------x-|-3---x-------x-|-3---3-x--2---2-x-|#/2t2##/2t1#

Verso 1:
                       ^        ^                         ^        ^
#3t1##3t2#E|-------------x-|-----0-x------0-x-|-------------x-|-----3-x------0-x-|
B|-------------x-|-----0-x------0-x-|-------------x-|-----3-x--3---3-x-|
G|-0---0-----0-x-|-0---0-x--0---0-x-|-0---0-----0-x-|-0---0-x--2---2-x-|
D|-2---2---2---x-|-4---4-x--0h2-2-x-|-0---0---0---x-|-0---0-x------0-x-|  2x
A|-------2-----x-|-2---2-x--3---3-x-|-------2-----x-|-----2-x------0-x-|
E|-0---x-------x-|-------x--------x-|-3---x-------x-|-3---3-x--2---2-x-|
                       ^        ^         ^        ^         ^        ^#/3t2##/3t1#
#4t1##4t2#E|-------------x-|-----0-x------0-x-|-----3-x------3-x-|-----3-x------0-x-|
B|-------------x-|-----0-x------0-x-|-----3-x------3-x-|-----3-x--3---3-x-|
G|-0---0-----0-x-|-0---0-x--0---0-x-|-0---0-x--0---0-x-|-0---0-x--2---2-x-|
D|-2---2---2---x-|-4---4-x--0h2-2-x-|-0---0-x--0---0-x-|-0---0-x------0-x-|
A|-------2-----x-|-2---2-x--3---3-x-|-----2-x------2-x-|-----2-x------0-x-|
E|-0---x-------x-|-------x--------x-|-3---3-x--3---3-x-|-3---3-x--2---2-x-|
                       ^        ^                          ^        ^#/4t2##/4t1#
#5t1##5t2#E|-------------x-|-----0-x------0-x-|--------------x-|-----3-x------3-x-|
B|-------------x-|-----0-x------0-x-|--------------x-|-----3-x------3-x-|
G|-0---0-----0-x-|-0---0-x--0---0-x-|------0-----0-x-|-0---0-x--0---0-x-|
D|-2---2---2---x-|-4---4-x--0h2-2-x-|------0---0---x-|-0---0-x--0---0-x-|
A|-------2-----x-|-2---2-x--3---3-x-|-0h2----2-----x-|-----2-x------2-x-|
E|-0---x-------x-|-------x--------x-|-3----x-------x-|-3---3-x--3---3-x-|#/5t2##/5t1#

Pré Refrão: Am7        C                 G              D9 (segunda vez tocada)
            ^                ^                                  ^
#6t1##6t2#E|-0---x-0--0-----|-0---x-0--0-----|-----x--------x-|-----x-----3---x-|
B|-1---x-1--1-----|-1---x-1--1-----|-0---x--------x-|-0---x-----0---x-|
G|-0---x-0--0-0---|-0---x-0--0-0---|-0---x------0-x-|-0---x--0--0---x-|
D|-----x----2---2-|-----x----2---2-|-0---x----0---x-|-0---x--0--0-0-x-|
A|-0---x-0--0-----|-3---x-3--3-----|-----x--------x-|-----x-----2---x-|
E|-----x----------|-----x----------|-3---x--3-----x-|-3---x--3--3---x-|
            ^                ^                                  ^#/6t2##/6t1#
#7t1##7t2#E|-0---x-0--0-----|-0---x-3--3-----|----------------|-----------------|
B|-1---x-1--1-----|-1---x-1--1-----|-3--------------|-----------------|
G|-0---x-0--0-0---|-0---x-0--0-0---|-2--------------|-----------------|
D|-----x----2---2-|-----x----2---2-|-0--------------|-----------------|
A|-0---x-0--0-----|-3---x-3--3-----|-0--------------|-----------------|
E|-----x----------|-----x----------|-2--------------|-----------------|#/7t2##/7t1#

Refrão: Em            B                    C9                 G
                       ^        ^         ^        ^         ^        ^
#8t1##8t2#E|-------------x-|-----0-x------0-x-|-----3-x------3-x-|-----3-x------0-x-|
B|-------------x-|-----0-x------0-x-|-----3-x------3-x-|-----3-x--3---3-x-|
G|-0---0-----0-x-|-0---0-x--0---0-x-|-----0-x------0-x-|-0---0-x--2---2-x-|
D|-2---2---2---x-|-4---4-x--0h2-2-x-|-----0-x--0---0-x-|-0---0-x------0-x-|
A|-------2-----x-|-2---2-x--3---3-x-|-0h2-2-x--2---2-x-|-----2-x------0-x-|
E|-0---x-------x-|-------x--------x-|-3---3-x--3---3-x-|-3---3-x--2---2-x-|
                       ^        ^                          ^        ^#/8t2##/8t1#
#9t1##9t2#E|-------------x-|-----0-x------0-x-|--------------x-|-----3-x------0-x-|
B|-------------x-|-----0-x------0-x-|--------------x-|-----3-x--3---3-x-|
G|-0---0-----0-x-|-0---0-x--0---0-x-|------0-----0-x-|-0---0-x--2---2-x-|
D|-2---2---2---x-|-4---4-x--0h2-2-x-|------0---0---x-|-0---0-x------0-x-|
A|-------2-----x-|-2---2-x--3---3-x-|-0h2----2-----x-|-----2-x------0-x-|
E|-0---x-------x-|-------x--------x-|-3----x-------x-|-3---3-x--2---2-x-|
                       ^        ^         ^        ^         ^        ^#/9t2##/9t1#
#10t1##10t2#E|-------------x-|-----0-x------0-x-|-----3-x------3-x-|-----3-x------0-x-|
B|-------------x-|-----0-x------0-x-|-----3-x------3-x-|-----3-x--3---3-x-|
G|-0---0-----0-x-|-0---0-x--0---0-x-|-0---0-x--0---0-x-|-0---0-x--2---2-x-|
D|-2---2---2---x-|-4---4-x--0h2-2-x-|-0---0-x--0---0-x-|-0---0-x------0-x-|
A|-------2-----x-|-2---2-x--3---3-x-|-----2-x------2-x-|-----2-x------0-x-|
E|-0---x-------x-|-------x--------x-|-3---3-x--3---3-x-|-3---3-x--2---2-x-|
                       ^        ^#/10t2##/10t1#
#11t1##11t2#E|-------------x-|-----0-x------0-x-|--------------x-|---------------|
B|-------------x-|-----0-x------0-x-|--------------x-|---------------|
G|-0---0-----0-x-|-0---0-x--0---0-x-|------0-----0-x-|-0-------------|
D|-2---2---2---x-|-4---4-x--0h2-2-x-|------0---0---x-|-0-------------|
A|-------2-----x-|-2---2-x--3---3-x-|-0h2----2-----x-|---------------|
E|-0---x-------x-|-------x--------x-|-3----x-------x-|-3-------------|#/11t2##/11t1#

Verso 2:
                       ^        ^                          ^        ^
#12t1##12t2#E|-------------x-|-----0-x------0-x-|--------------x-|-----3-x------0-x-|
B|-------------x-|-----0-x------0-x-|--------------x-|-----3-x--3---3-x-|
G|-0---0-----0-x-|-0---0-x--0---0-x-|------0-----0-x-|-0---0-x--2---2-x-|
D|-2---2---2---x-|-4---4-x--0h2-2-x-|------0---0---x-|-0---0-x------0-x-|  2x
A|-------2-----x-|-2---2-x--3---3-x-|-0h2----2-----x-|-----2-x------0-x-|
E|-0---x-------x-|-------x--------x-|-3----x-------x-|-3---3-x--2---2-x-|#/12t2##/12t1#

#13t1##13t2#E|-0-------------|------------------|----------------|------------------|
B|-0-------------|------------------|----------------|----------3-------|
G|-0-------------|-0----------------|-0--------------|----------2-------|
D|-2-------------|-4--------0h2-----|-0--------------|------------------|
A|-2-------------|-2----------------|-2--------------|------------------|
E|-0-------------|------------------|-3--------------|----------2-------|
                       ^        ^                          ^        ^#/13t2##/13t1#
#14t1##14t2#E|-------------x-|-----0-x------0-x-|--------------x-|-----3-x------3-x-|
B|-------------x-|-----0-x------0-x-|--------------x-|-----3-x------3-x-|
G|-0---0-----0-x-|-0---0-x--0---0-x-|------0-----0-x-|-0---0-x--0---0-x-|
D|-2---2---2---x-|-4---4-x--0h2-2-x-|------0---0---x-|-0---0-x--0---0-x-|
A|-------2-----x-|-2---2-x--3---3-x-|-0h2----2-----x-|-----2-x------2-x-|
E|-0---x-------x-|-------x--------x-|-3----x-------x-|-3---3-x--3---3-x-|#/14t2##/14t1#

Pré-Refrão:
            ^                ^                                  ^
#15t1##15t2#E|-0---x-0--0-----|-0---x-0--0-----|-----x--------x-|-----x-----3---x-|
B|-1---x-1--1-----|-1---x-1--1-----|-0---x--------x-|-0---x-----0---x-|
G|-0---x-0--0-0---|-0---x-0--0-0---|-0---x------0-x-|-0---x--0--0---x-|
D|-----x----2---2-|-----x----2---2-|-0---x----0---x-|-0---x--0--0-0-x-|
A|-0---x-0--0-----|-3---x-3--3-----|-----x--------x-|-----x-----2---x-|
E|-----x----------|-----x----------|-3---x--3-----x-|-3---x--3--3---x-|
            ^                ^                                  ^#/15t2##/15t1#
#16t1##16t2#E|-0---x-0--0-----|-0---x-3--3-----|----------------|-----------------|
B|-1---x-1--1-----|-1---x-1--1-----|-3-3-3-3-3-3-3--|-----------------|
G|-0---x-0--0-0---|-0---x-0--0-0---|-2-2-2-2-2-2-2--|-----------------|
D|-----x----2---2-|-----x----2---2-|-0-0-0-0-0-0-0--|-----------------|
A|-0---x-0--0-----|-3---x-3--3-----|-0-0-0-0-0-0-0--|-----------------|
E|-----x----------|-----x----------|-2-2-2-2-2-2-2--|-----------------|#/16t2##/16t1#

Refrão:
                       ^        ^         ^        ^         ^        ^
#17t1##17t2#E|-------------x-|-----0-x------0-x-|-----3-x------3-x-|-----3-x------0-x-|
B|-------------x-|-----0-x------0-x-|-----3-x------3-x-|-----3-x--3---3-x-|
G|-0---0-----0-x-|-0---0-x--0---0-x-|-----0-x--0---0-x-|-0---0-x--2---2-x-|
D|-2---2---2---x-|-4---4-x--0h2-2-x-|-----0-x--0---0-x-|-0---0-x------0-x-|
A|-------2-----x-|-2---2-x--3---3-x-|-0h2-2-x------2-x-|-----2-x------0-x-|
E|-0---x-------x-|-------x--------x-|-3---3-x--3---3-x-|-3---3-x--2---2-x-|
                       ^        ^                          ^        ^#/17t2##/17t1#
#18t1##18t2#E|-------------x-|-----0-x------0-x-|--------------x-|-----3-x------0-x-|
B|-------------x-|-----0-x------0-x-|--------------x-|-----3-x--3---3-x-|
G|-0---0-----0-x-|-0---0-x--0---0-x-|------0-----0-x-|-0---0-x--2---2-x-|
D|-2---2---2---x-|-4---4-x--0h2-2-x-|------0---0---x-|-0---0-x------0-x-|
A|-------2-----x-|-2---2-x--3---3-x-|-0h2----2-----x-|-----2-x------0-x-|
E|-0---x-------x-|-------x--------x-|-3----x-------x-|-3---3-x--2---2-x-|
                       ^        ^         ^        ^         ^        ^#/18t2##/18t1#
#19t1##19t2#E|-------------x-|-----0-x------0-x-|-----3-x------3-x-|-----3-x------0-x-|
B|-------------x-|-----0-x------0-x-|-----3-x------3-x-|-----3-x--3---3-x-|
G|-0---0-----0-x-|-0---0-x--0---0-x-|-0---0-x--0---0-x-|-0---0-x--2---2-x-|
D|-2---2---2---x-|-4---4-x--0h2-2-x-|-0---0-x--0---0-x-|-0---0-x------0-x-|
A|-------2-----x-|-2---2-x--3---3-x-|-----2-x------2-x-|-----2-x------0-x-|
E|-0---x-------x-|-------x--------x-|-3---3-x--3---3-x-|-3---3-x--2---2-x-|
                       ^        ^#/19t2##/19t1#
#20t1##20t2#E|-------------x-|-----0-x------0-x-|--------------x-|---------------|
B|-------------x-|-----0-x------0-x-|--------------x-|---------------|
G|-0---0-----0-x-|-0---0-x--0---0-x-|------0-----0-x-|-0---0-----0---|
D|-2---2---2---x-|-4---4-x--0h2-2-x-|------0---0---x-|-0---0---0-----|
A|-------2-----x-|-2---2-x--3---3-x-|-0h2----2-----x-|-------2-------|
E|-0---x-------x-|-------x--------x-|-3----x-------x-|-3---x---------|#/20t2##/20t1#

Ponte:  D               C9                 D9/F#             G
       ^
#21t1##21t2#E|-2---2-x-----2-x-|-------x--------x-|------x-------x-|-----x-------x-|
B|-3---3-x---3---x-|---3---x-----3--x-|---0--x-----0-x-|---0-x-----0-x-|
G|-2---2-x-2-----x-|-2-0---x-----0--x-|---0--x-----0-x-|---0-x-----0-x-|
D|-----0-x-------x-|---2---x---2----x-|---2--x---2---x-|-2-0-x---0---x-|
A|-0-----x-0-----x-|---3---x-3------x-|-3-2--x-2-----x-|-----x-2-----x-|
E|-------x-------x-|-------x--------x-|------x-------x-|---3-x-------x-|#/21t2##/21t1#

#22t1##22t2#E|-2-----x-----2-x-|-------x--------x-|------x-------x-|-----x-------x-|
B|-3-----x---3---x-|---3---x-----3--x-|---0--x-----0-x-|---0-x-----0-x-|
G|-2-----x-2-----x-|-2-0---x-----0--x-|---0--x-----0-x-|---0-x-----0-x-|
D|-------x-------x-|---2---x---2----x-|---2--x---2---x-|-2-0-x---0---x-|
A|-0-----x-0-----x-|---3---x-3------x-|-3-2--x-2-----x-|-----x-2-----x-|
E|-------x-------x-|-------x--------x-|------x-------x-|---3-x-------x-|#/22t2##/22t1#

#23t1##23t2#E|------0--------0-|------0-----------|----------------|
B|------3--------3-|------5-----------|----------------|
G|------0--------0-|------0-----------|----------------|
D|------2--------2-|------4-----------|----------------|
A|-0-3-------------|-0-5--------------|----------------|
E|-----------------|------------------|----------------|#/23t2##/23t1#

#24t1#Refrão:                      ^        ^                          ^        ^
#24t2#E|-------------x-|-----0-x------0-x-|--------------x-|-----3-x------0-x-|
B|-------------x-|-----0-x------0-x-|--------------x-|-----3-x--3---3-x-|
G|-0---0-----0-x-|-0---0-x--0---0-x-|-0----0-----0-x-|-0---0-x--2---2-x-|
D|-2---2---2---x-|-4---4-x--0h2-2-x-|-0----0---0---x-|-0---0-x------0-x-|
A|-------2-----x-|-2---2-x--3---3-x-|--------2-----x-|-----2-x------0-x-|
E|-0---x-------x-|-------x--------x-|-3----x-------x-|-3---3-x--2---2-x-|
                       ^        ^                          ^        ^#/24t2##/24t1#
#25t1##25t2#E|-------------x-|-----0-x------0-x-|--------------x-|-----3-x------0-x-|
B|-------------x-|-----0-x------0-x-|--------------x-|-----3-x--3---3-x-|
G|-0---0-----0-x-|-0---0-x--0---0-x-|-0----0-----0-x-|-0---0-x--2---2-x-|
D|-2---2---2---x-|-4---4-x--0h2-2-x-|-0----0---0---x-|-0---0-x------0-x-|
A|-------2-----x-|-2---2-x--3---3-x-|--------2-----x-|-----2-x------0-x-|
E|-0---x-------x-|-------x--------x-|-3----x-------x-|-3---3-x--2---2-x-|
                       ^        ^                          ^        ^#/25t2##/25t1#
#26t1##26t2#E|-------------x-|-----0-x------0-x-|--------------x-|-----3-x------0-x-|
B|-------------x-|-----0-x------0-x-|--------------x-|-----3-x--3---3-x-|
G|-0---0-----0-x-|-0---0-x--0---0-x-|-0----0-----0-x-|-0---0-x--2---2-x-|
D|-2---2---2---x-|-4---4-x--0h2-2-x-|-0----0---0---x-|-0---0-x------0-x-|
A|-------2-----x-|-2---2-x--3---3-x-|--------2-----x-|-----2-x------0-x-|
E|-0---x-------x-|-------x--------x-|-3----x-------x-|-3---3-x--2---2-x-|
                       ^        ^#/26t2##/26t1#
#27t1##27t2#E|-------------x-|-----0-x------0-x-|--------------x-|------------------|
B|-------------x-|-----0-x------0-x-|--------------x-|------------------|
G|-0---0-----0-x-|-0---0-x--0---0-x-|-0----0-----0-x-|-0--------0-----0-|
D|-2---2---2---x-|-4---4-x--0h2-2-x-|-0----0---0---x-|-0--0---0-----0---|
A|-------2-----x-|-2---2-x--3---3-x-|--------2-----x-|------2-----------|
E|-0---x-------x-|-------x--------x-|-3----x-------x-|-3----------------|#/27t2##/27t1#

#28t1#Outro:
#28t2#E|---------------|------------------|----------------|------------------|
B|-3-------------|------------------|----------------|------------------|
G|-2-0-----------|-0--------0-------|-0--------------|------------------|
D|---2-----------|-4--------0h2-----|-0--------------|------------------|
A|---------------|-2--------3-------|----------------|------------------|
E|-2-0-----------|------------------|-3--------------|------------------|#/28t2##/28t1#

#29t1##29t2#E|---------------|------------------|----------------|------------------|
B|---------------|------------------|----------------|------------------|
G|-0-------------|-0--------0-------|-0--------------|------------------|
D|-2-------------|-4--------0h2-----|-0--------------|------------------|
A|---------------|-2--------3-------|----------------|------------------|
E|-0-------------|------------------|-3--------------|------------------|#/29t2##/29t1#
Composición: Ed SheeranColaboración y revisión: Ramon CastroAna Luiza