Perfect

Ed Sheeran

C9
1234
X32033
D
123
XX0232
D4
123
XX0233
Em7
123
020033
G
1234
320033
G/F#
123
2X0033
Tono: G
[Primeira Parte]

           G        Em7
I found a love for me
               C9
Darling, just dive right in 
               D   D4
And follow my lead
                 G
Well, I found a girl
       Em7
Beautiful and sweet
              C9
Oh, I never knew you were the someone 
             D  D4
Waiting for me

#1t1#[Dedilhado - Primeira Parte]

Parte 1 De 4
   G
#1t2#E|------------------------------------------|
B|-3--3--3--3--3--3---3--3--3--3--3--3------|
G|-0--0--0--0--0--0---0--0--0--0--0--0------|
D|------------------------------------------|
A|------------------------------------------|
E|-3------------------3---------------------|#/1t2##/1t1#

#2t1#Parte 2 De 4
   Em7
#2t2#E|------------------------------------------|
B|-3--3--3--3--3--3---3--3--3--3--3--3------|
G|-0--0--0--0--0--0---0--0--0--0--0--0------|
D|------------------------------------------|
A|------------------------------------------|
E|-0------------------0---------------------|#/2t2##/2t1#

#3t1#Parte 3 De 4
   C9
#3t2#E|------------------------------------------|
B|-3--3--3--3--3--3---3--3--3--3--3--3------|
G|-0--0--0--0--0--0---0--0--0--0--0--0------|
D|------------------------------------------|
A|-3------------------3---------------------|
E|------------------------------------------|#/3t2##/3t1#

#4t1#Parte 4 De 4
   D                   D4
#4t2#E|----------2h3-----------------3-----------|
B|-3--3--3--3---3--3---3--3--3--3--3--3-----|
G|-2--2--2--2---2--2---2--2--2--2--2--2-----|
D|-0-------------------0--------------------|
A|------------------------------------------|
E|------------------------------------------|#/4t2##/4t1#

[Pré-Refrão]

'Cause we were just kids 
         G
When we fell in love
              Em7
Not knowing what it was
            C9               G  D   D4
I will not give you up this ti___me
 
                  G
But darling, just kiss me slow
              Em7
Your heart is all I own
            C9                   D   D4
And in your eyes you're holding mine

#5t1#[Dedilhado - Pré-refrão - 1ª Estrofe]

Parte 1 De 4
   G
#5t2#E|------------------------------------------|
B|-3--3--3--3--3--3---3--3--3--3--3--3------|
G|-0--0--0--0--0--0---0--0--0--0--0--0------|
D|------------------------------------------|
A|------------------------------------------|
E|-3------------------3---------------------|#/5t2##/5t1#

#6t1#Parte 2 De 4
   Em7
#6t2#E|------------------------------------------|
B|-3--3--3--3--3--3---3--3--3--3--3--3------|
G|-0--0--0--0--0--0---0--0--0--0--0--0------|
D|------------------------------------------|
A|------------------------------------------|
E|-0------------------0---------------------|#/6t2##/6t1#

#7t1#Parte 3 De 4
   C9
#7t2#E|------------------------------------------|
B|-3--3--3--3--3--3---3--3--3--3--3--3------|
G|-0--0--0--0--0--0---0--0--0--0--0--0------|
D|------------------------------------------|
A|-3------------------3---------------------|
E|------------------------------------------|#/7t2##/7t1#
                                      
#8t1#Parte 4 De 4
   G                  D
#8t2#E|-----------------------------2h3----------|
B|-3--3--3--3--3--3---3--3--3--3---3--3-----|
G|-0--0--0--0--0--0---2--2--2--2---2--2-----|
D|--------------------0---------------------|
A|------------------------------------------|
E|-3----------------------------------------|#/8t2##/8t1#
 
#9t1#[Dedilhado - Pré-refrão - 2ª Estrofe]

Parte 1 De 4
   G
#9t2#E|------------------------------------------|
B|-3--3--3--3--3--3---3--3--3--3--3--3------|
G|-0--0--0--0--0--0---0--0--0--0--0--0------|
D|------------------------------------------|
A|------------------------------------------|
E|-3------------------3---------------------|#/9t2##/9t1#

#10t1#Parte 2 De 4
   Em7
#10t2#E|------------------------------------------|
B|-3--3--3--3--3--3---3--3--3--3--3--3------|
G|-0--0--0--0--0--0---0--0--0--0--0--0------|
D|------------------------------------------|
A|------------------------------------------|
E|-0------------------0---------------------|#/10t2##/10t1#

#11t1#Parte 3 De 4
   C9
#11t2#E|------------------------------------------|
B|-3--3--3--3--3--3---3--3--3--3--3--3------|
G|-0--0--0--0--0--0---0--0--0--0--0--0------|
D|------------------------------------------|
A|-3------------------3---------------------|
E|------------------------------------------|#/11t2##/11t1#
                                      
#12t1#Parte 4 De 4
   D                   D4
#12t2#E|----------2h3-----------------3-----------|
B|-3--3--3--3---3--3---3--3--3--3--3--3-----|
G|-2--2--2--2---2--2---2--2--2--2--2--2-----|
D|-0-------------------0--------------------|
A|------------------------------------------|
E|------------------------------------------|#/12t2##/12t1#

[Refrão]

      Em7  C9             G
Baby, I'm dancing in the dark
      D             Em7
With you between my arms
 C9               G
Barefoot on the grass
 D                Em7
Listening to our favorite song
          C9                G
When you said you looked a mess
            D               Em7
I whispered underneath my breath
         C9
But you heard it
          G        D
Darling, you look perfect tonight

#13t1#[Dedilhado - Refrão]

Parte 1 De 2
      Em7                C9
#13t2#E|----------3------------------3------------|
B|-------3--------3---------3--------3------|
G|----0--------0---------0--------0---------|
D|------------------------------------------|
A|--------------------3---------------------|
E|-0----------------------------------------|#/13t2##/13t1#

#14t1#Parte 2 De 2       
      G                  D
#14t2#E|----------3------------------2h3----------|
B|-------3--------3---------3---------3-----|
G|----0--------0---------2---------2--------|
D|--------------------0---------------------|
A|------------------------------------------|
E|-3----------------------------------------|#/14t2##/14t1#

[Ponte]

(G  G/F#  Em7  D4  C9  D4)

#15t1#[Dedilhado - Ponte]

Parte 1 De 2
   G        G/F#     Em7      D4
#15t2#E|-------3--------3--------3--------3-------|
B|-------3--------3--------3--------3-------|
G|----0--------0--------0--------2----------|
D|----------------------------0-------------|
A|------------------------------------------|
E|-3--------2--------0----------------------|#/15t2##/15t1#

#16t1#Parte 2 De 2
   C9                 D
#16t2#E|----------3------------------2h3----------|
B|-------3--------3---------3---------3-----|
G|----0--------0---------2---------2--------|
D|--------------------0---------------------|
A|-3----------------------------------------|
E|------------------------------------------|#/16t2##/16t1#

[Segunda Parte]

                 G
Well, I found a woman
              Em7
Stronger than anyone I know
                C9
She shares my dreams I hope that someday 

                D  D4
I'll share her ho_____me

           G
I found a lover
          Em7
To carry more than just my secrets
          C9
To carry love
                         D   D4
To carry children of our own

#17t1#[Dedilhado - Segunda Parte]

Parte 1 De 4
   G
#17t2#E|----------3------------------3------------|
B|-------3--------3---------3--------3------|
G|----0--------0---------0--------0---------|
D|------------------------------------------|
A|------------------------------------------|
E|-3------------------3---------------------|#/17t2##/17t1#

#18t1#Parte 2 De 4
   Em7
#18t2#E|----------3------------------3------------|
B|-------3--------3---------3--------3------|
G|----0--------0---------0--------0---------|
D|------------------------------------------|
A|------------------------------------------|
E|-0------------------0---------------------|#/18t2##/18t1#

#19t1#Parte 3 De 4
   C9
#19t2#E|----------3------------------3------------|
B|-------3--------3---------3--------3------|
G|----0--------0---------0--------0---------|
D|------------------------------------------|
A|-3------------------3---------------------|
E|------------------------------------------|#/19t2##/19t1#

#20t1#Parte 4 De 4
   D                   D4
#20t2#E|----------2h3-----------------3-----------|
B|------3---------3---------3---------3-----|
G|---2----------2---------2--------2--------|
D|-0-------------------0--------------------|
A|------------------------------------------|
E|------------------------------------------|#/20t2##/20t1#

[Pré-Refrão]

                              G
We are still kids, but we're so in love
           Em7
Fighting against all odds
              C9              G  D   D4
I know we'll be alright this ti___me

               G
Darling, just hold my hand
                  Em7
Be my girl, I'll be your man
          C9            D    D4
I see my future in your eyes

#21t1#[Dedilhado - Pré-refrão - repetição]

Parte 1 De 4
   G
#21t2#E|----------3------------------3------------|
B|-------3--------3---------3--------3------|
G|----0--------0---------0--------0---------|
D|------------------------------------------|
A|------------------------------------------|
E|-3------------------3---------------------|#/21t2##/21t1#

#22t1#Parte 2 De 4
   Em7
#22t2#E|----------3------------------3------------|
B|-------3--------3---------3--------3------|
G|----0--------0---------0--------0---------|
D|------------------------------------------|
A|------------------------------------------|
E|-0------------------0---------------------|#/22t2##/22t1#

#23t1#Parte 3 De 4
   C9
#23t2#E|----------3------------------3------------|
B|-------3--------3---------3--------3------|
G|----0--------0---------0--------0---------|
D|------------------------------------------|
A|-3------------------3---------------------|
E|------------------------------------------|#/23t2##/23t1#

#24t1#Parte 4 De 4
   G                  D
#24t2#E|----------3------------------2h3----------|
B|-------3--------3---------3---------3-----|
G|----0--------0---------2---------2--------|
D|--------------------0---------------------|
A|------------------------------------------|
E|-3----------------------------------------|#/24t2##/24t1#

[Refrão]

      Em7  C9             G
Baby, I'm dancing in the dark
      D      D4     Em7
With you between my arms
 C9               G
Barefoot on the grass
 D         D4     Em7
Listening to our favorite song
        C9               G
When I saw you in that dress
            D     D4
Looking so beautiful 
   Em7     C9
I don't deserve this
          G        D  D4
Darling, you look perfect tonight

[Solo] G  Em7  C9  D  D4

#25t1#[Tab - Solo]

Parte 1
#25t2#E|----------------------------------------------------|
B|----------------------------------------------------|
G|------4--5--5/7--7--7/5--4--5/6/5/4-----------------|
D|-5----5--7--7/9--9--9/7--5--7/8/7/5-----------------|
A|-5h7------------------------------------------------|
E|----------------------------------------------------|#/25t2##/25t1#

#26t1#Parte 2
#26t2#E|----------------------------------------------------|
B|----------------------------------------------------|
G|-----4--5--5/7--7/5/4--5--5/9---7--7/5--4--5--4--2--|
D|-5---5--7--7/9--9/7/5--7--7/10--9--9/7--5--7--5--4--|
A|-5h7------------------------------------------------|
E|----------------------------------------------------|#/26t2##/26t1#

[Refrão]

      Em7  C9             G
Baby, I'm dancing in the dark
      D      D4     Em7
With you between my arms
 C9               G
Barefoot on the grass
 D         D4     Em7
Listening to our favorite song
        C9              G
I have faith in what I see
           D       D4    Em7       C9
Now I know I have met an angel in person
      G        D  D4
And she looks perfect
   C9
I don't deserve this
 D   D4
You look perfect tonight

(G  G/F#  Em7  D4  C9  D4  G)
Composición: Matthew Sheeran / Ed SheeranColaboración y revisión: Caico AntunesAugusto MachadoIvy NeriSarah Crystinney más 10
videoclase Perfect (aula de violão completa)