You Are The Reason

Calum Scott

C
123
X32010
Cadd9
34
X35533
Cm
234
X35543
D
123
XX0232
D/F#
1234
2X0232
Em
12
022000
Em7
123
022030
G
123
320003
G/B
123
X20033
Tono: G
[Intro] G  Em7  Cadd9  D  G


   G                           
E|-------------|-------------|---
B|-------------|-------------|---
G|-0-----0-----|-0-----0-----|-0-
D|---0-0---0-0-|---0-0---0-0-|---
A|-------------|-------------|---
E|-3-----------|-------------|-0-
  Em7
E|----------|-------------| 
B|----------|-------------| 
G|----0-----|-0-----0-----| 
D|0-0---0-0-|---0-0---0-0-| 
A|----------|-------------| 
E|----------|-------------| 



   Cadd9         D             
E|-------------|-------------|---
B|-------------|-------------|---
G|-0-----0-----|-------------|-0-
D|---0-0---0-0-|-4-----4-----|---
A|-3-----------|-5-5-5---5-5-|---
E|-------------|-------------|-3-
  G
E|----------|-------------| 
B|----------|-------------| 
G|----0-----|-0-----0-----| 
D|0-0---0-0-|---0-0---0-0-| 
A|----------|-------------| 
E|----------|-------------| 


[Primeira Parte]

              G
There goes my heart beating
                  Em7
Cause you are the reason
              Cadd9     D
I'm losing my sleep
                 G
Please come back now
              G
There goes my mind racing
                Em7
And you are the reason
               Cadd9       D
That I'm still breathing
             Em7
I'm hopeless now


   G                           
E|-------------|-------------|---
B|-------------|-------------|---
G|-0-----0-----|-0-----0-----|-0-
D|---0-0---0-0-|---0-0---0-0-|---
A|-------------|-------------|---
E|-3-----------|-------------|-0-
  Em7
E|----------|-------------| 
B|----------|-------------| 
G|----0-----|-0-----0-----| 
D|0-0---0-0-|---0-0---0-0-| 
A|----------|-------------| 
E|----------|-------------| 



   Cadd9         D             
E|-------------|-------------|---
B|-------------|-------------|---
G|-0-----0-----|-------------|-0-
D|---0-0---0-0-|-4-----4-----|---
A|-3-----------|-5-5-5---5-5-|---
E|-------------|-------------|-0-
  Em7                 G/B
E|----------|-------------| 
B|----------|-------------| 
G|----0-----|-0-----0-----| 
D|0-0---0-0-|---0-0---0-0-| 
A|----------|-------2-----| 
E|----------|-------------| 


[Refrão]

    G/B         Cadd9        D
I'd climb every mountain
               Em7
And swim every ocean
           Cadd9      D
Just to be with you
                  G       D
And fix what I've broken
Em7 D/F# G C Cm Oh, cause I need you to see G That you are the reason E|-------------|-------------|--- B|-------------|-------------|--- G|-0-----0-----|-------------|-0- D|---0-0---0-0-|-4-----4-----|--- A|-3-----------|-5-5-5---5-5-|--- E|-------------|-------------|-0- E|----------|-------------| B|----------|-------------| G|----0-----|-0-----0-----| D|0-0---0-0-|---0-0---0-0-| A|----------|-------2-----| E|----------|-------------| Cadd9 D E|-------------|-------------|--- B|-------------|-------------|--- G|-0-----0-----|-------------|-0- D|---0-0---0-0-|-4-----4-----|--- A|-3-----------|-5-5-5---5-5-|--- E|-------------|-------------|-3- G D E|----------|-2-----------| B|----------|-3-----------| G|----0-----|-2-----------| D|0-0---0-0-|-0-----------| A|----------|-------------| E|----------|-------------| Em7 D/F# G G/B C E|-------------|-------------|---- B|-------------|-0-----3-----|-5-- G|-0-----2-----|-------------|---- D|-------------|-------------|---- A|-------------|-------2-----|-3-- E|-0-----2-----|-3-----------|---- Cm E|---------|-3-----------| B|---------|-4-----------| G|---------|-5-----------| D|---------|-5-----------| A|---------|-3-----------| E|---------|-------------| [Segunda Parte] G There goes my hands shaking Em7 And you are the reason Cadd9 D My heart keeps bleeding G I need you now G If I could turn back the clock Em7 I'd make sure the light defeated the dark Cadd9 D I'd spend every hour, of every day Em7 Keeping you safe [Refrão] G/B Cadd9 D I'd climb every mountain Em7 And swim every ocean Cadd9 D Just to be with you G D And fix what I've broken Em7 D/F# G C Cm Oh, cause I need you to see G E|-------------|-------------|--- B|-------0-----|-------0-----|--- G|-0---0---0---|-0---0---0---|-0- D|---0-------0-|---0-------0-|--- A|-------------|-------------|--- E|-3-----------|-3-----------|-0- Em7 E|----------|-------------| B|----0-----|-------0-----| G|--0---0---|-0---0---0---| D|0-------0-|---0-------0-| A|----------|-------------| E|----------|-0-----------| Cadd9 D E|-------------|-------------|--- B|-------0-----|-------------|--- G|-0---0---0---|-------0-----|-0- D|---0-------0-|-4---4---4---|--- A|-3-----------|-5-5-------5-|--- E|-------------|-------------|-3- G E|----------|-------------| B|----0-----|-------0-----| G|--0---0---|-0---0---0---| D|0-------0-|---0-------0-| A|----------|-------------| E|----------|-3-----------| G E|-------------|-------------|--- B|-------0-----|-------0-----|--- G|-0---0---0---|-0---0---0---|-0- D|---0-------0-|---0-------0-|--- A|-------------|-------------|--- E|-3-----------|-3-----------|-0- Em7 E|----------|-------------| B|----0-----|-------0-----| G|--0---0---|-0---0---0---| D|0-------0-|---0-------0-| A|----------|-------------| E|----------|-0-----------| Cadd9 D E|-------------|-------------|--- B|-------0-----|-------------|--- G|-0---0---0---|-------0-----|-0- D|---0-------0-|-4---4---4---|--- A|-3-----------|-5-5-------5-|--- E|-------------|-------------|-0- Em7 G/B E|----------|-------------| B|----0-----|-------------| G|--0---0---|-0---0-----0-| D|0-------0-|---0-----0---| A|----------|-------2-----| E|----------|-0-----------| [Passagem] Cadd9 D That you are the reason Em7 D/F# G/B C D Em7 You are the reason D/F# G/B C D I need you to hold me tonight Cadd9 D E|-------------|-------------|--- B|-------------|-------------|--- G|-0-----0-----|-------------|-0- D|---0-0---0-0-|-4-----4-----|--- A|-3-----------|-5-5-5---5-5-|--- E|-------------|-------------|-0- Em7 D/F# G G/B E|----------|-------------| B|----------|-------------| G|----2-----|-0-----0-----| D|0-0---0-0-|---0-0---0-0-| x2 A|----------|-------2-----| E|----2-----|-3-----------| Cadd9 D E|-------------|-2-----------|---- B|-------------|-3-----------|---- G|-0-----0-----|-2-----------|---- D|---0-0---0-0-|-0-----------|---- A|-3-----3-----|-------------|---- E|-------------|-------------|---- [Final] C D I'd climb every mountain Em And swim every ocean C D Just to be with you G D And fix what I've broken Em D/F# G C Cm Cause I need you to see G That you are the reason
Composición: Corey Sanders / Jon MaguireColaboración y revisión: Lucas AlvesAlan RodriguesHigino MeloPatrick Santosy más 1