Dancing On My Own

Calum Scott

Am
123
X02210
C
123
X32010
F
234
133211
G
123
320003
Tono: G
[Intro]


      C
E|--------------------------------
B|--------------------------------
G|--0----0----0----0--------------
D|--------------------------------
A|-3------------------------------
E|--------------------------------



      C
E|--------------------------------
B|--------------------------------
G|--0----0----0----0--------------
D|--------------------------------
A|-3------------------------------
E|--------------------------------



[Primeira Parte]


    C              G            
E|-------------------------------
B|-------------------------------
G|---0--0---0--0---0--0---0--0---
D|-------------------------------
A|-3------3----------------------
E|---------------3------3------1-
  F
E|--------------------------| 
B|--------------------------| 
G|2--0---0--0---0--0---0--0-| 
D|--------------------------| 
A|--------------------------| 
E|-----1------1------1------| 


C        G                   F
Somebody said you got a new friend
C        G                     F
Does she love you better than I can?
C         G                    F
There's a big black sky over my town
C          G                   F
I know where you're at, I bet she's 
around

[Pré-Refrão]


     Am     G      F      F      
E|--------------------------------
B|--1------3------1------1------3-
G|--2------0------2------2------0-
D|--2------0------3------3------0-
A|--0------2------3------3------2-
E|---------3--------------------3-


Am             G            F
Stilettos and broken bottles
F                G
I'm spinning around in circles

[Refrão]


    C              G             
E|-------------------------------
B|---1--1---1--1---3--3---3--3---
G|---0--0---0--0---0--0---0--0---
D|---2--2---2--2---0--0---0--0---
A|-3------3--------------------3-
E|---------------3------3--------
  F                   G
E|--------------------------| 
B|1--1---1--1---1--1---3--3-| 
G|2--2---2--2---2--2---0--0-| 
D|3--3---3--3---3--3---0--0-| 
A|-----3------3-------------| 
E|-------------------3------| 



    C              G             
E|-------------------------------
B|---1--1---1--1---3--3---3--3---
G|---0--0---0--0---0--0---0--0---
D|---2--2---2--2---0--0---0--0---
A|-3------3--------------------3-
E|---------------3------3--------
  F                   G
E|--------------------------| 
B|1--1---1--1---1--1---3--3-| 
G|2--2---2--2---2--2---0--0-| 
D|3--3---3--3---3--3---0--0-| 
A|-----3------3-------------| 
E|-------------------3------| 


C           G                  F
I'm in the corner, watching you 
                   G
kiss her, oh,oh,oh
C              G                  
I'm right over here, why can't you
 F                G
 see me, oh,oh,oh


    Am              G            
E|-------------------------------
B|---1--1---1--1---3--3---3--3---
G|---2--2---2--2---0--0---0--0---
D|---2--2---2--2---0--0---0--0---
A|-0------0--------------------3-
E|---------------3------3--------
  F
E|--------------------------| 
B|1--1---1--1---1--1---1--1-| 
G|2--2---2--2---2--2---2--2-| 
D|3--3---3--3---3--3---3--3-| 
A|-----3------3------3------| 
E|--------------------------| 



    Am              G            
E|-------------------------------
B|---1--1---1--1---3--3---3--3---
G|---2--2---2--2---0--0---0--0---
D|---2--2---2--2---0--0---0--0---
A|-0------0--------------------3-
E|---------------3------3--------
  F
E|--------------------------| 
B|1--1---1--1---1--1---1--1-| 
G|2--2---2--2---2--2---2--2-| 
D|3--3---3--3---3--3---3--3-| 
A|-----3------3------3------| 
E|--------------------------| 


Am               G               
I'm giving it my all, but I'm not
   F
 the guy you're taking home, ooo
C      G            F
I keep dancing on my own

[Segunda Parte] C G E|------------------------------- B|------------------------------- G|---0--0---0--0---0--0---0--0--- D|------------------------------- A|-3------3---------------------- E|---------------3------3------1- F E|--------------------------| B|--------------------------| G|2--0---0--0---0--0---0--0-| D|--------------------------| A|--------------------------| E|-----1------1------1------| C G F I just gonna dance all night C G I'm all messed up, I'm so out of F line Am G F F E|-------------------------------- B|--1------3------1------1------3- G|--2------0------2------2------0- D|--2------0------3------3------0- A|--0------2------3------3------2- E|---------3--------------------3- Am G F Yeah, I know it's stupid F G I just gotta see it for myself [Refrão] C G E|------------------------------- B|---1--1---1--1---3--3---3--3--- G|---0--0---0--0---0--0---0--0--- D|---2--2---2--2---0--0---0--0--- A|-3------3--------------------3- E|---------------3------3-------- F G E|--------------------------| B|1--1---1--1---1--1---3--3-| G|2--2---2--2---2--2---0--0-| D|3--3---3--3---3--3---0--0-| A|-----3------3-------------| E|-------------------3------| C G E|------------------------------- B|---1--1---1--1---3--3---3--3--- G|---0--0---0--0---0--0---0--0--- D|---2--2---2--2---0--0---0--0--- A|-3------3--------------------3- E|---------------3------3-------- F G E|--------------------------| B|1--1---1--1---1--1---3--3-| G|2--2---2--2---2--2---0--0-| D|3--3---3--3---3--3---0--0-| A|-----3------3-------------| E|-------------------3------| C G I'm in the corner, watching you F G kiss her, oh,oh,oh C G I'm right over here, why can't you F G see me, oh,oh,oh Am G E|------------------------------- B|---1--1---1--1---3--3---3--3--- G|---2--2---2--2---0--0---0--0--- D|---2--2---2--2---0--0---0--0--- A|-0------0--------------------3- E|---------------3------3-------- F E|--------------------------| B|1--1---1--1---1--1---1--1-| G|2--2---2--2---2--2---2--2-| D|3--3---3--3---3--3---3--3-| A|-----3------3------3------| E|--------------------------| Am G E|------------------------------- B|---1--1---1--1---3--3---3--3--- G|---2--2---2--2---0--0---0--0--- D|---2--2---2--2---0--0---0--0--- A|-0------0--------------------3- E|---------------3------3-------- F E|--------------------------| B|1--1---1--1---1--1---1--1-| G|2--2---2--2---2--2---2--2-| D|3--3---3--3---3--3---3--3-| A|-----3------3------3------| E|--------------------------| Am G I'm giving it my all, but I'm not F the guy you're taking home, ooo C G F I keep dancing on my own ( C F ) [Ponte] F G Am G E|------------------------------- B|---1------3------1------3------ G|---2------0------2------0------ D|---3------0------2------0------ A|---3------2------0------2------ E|----------3-------------3------ F E|--------------------------| B|1-------------------------| G|2-------------------------| D|3-------------------------| A|3-------------------------| E|--------------------------| F G Am So far away but still so near G F The lights come on, the music dies G Am Am C E|-------------------------------- B|---3------1------3------3------- G|---0------2------0------2------- D|---0------2------0------0------- A|---2------0------2------1------- E|---3-------------3-------------- G Am But you don't see me standing here G C I just came to say goodbye [Refrão] C G E|------------------------------- B|---1--1---1--1---3--3---3--3--- G|---0--0---0--0---0--0---0--0--- D|---2--2---2--2---0--0---0--0--- A|-3------3--------------------3- E|---------------3------3-------- F G E|--------------------------| B|1--1---1--1---1--1---3--3-| G|2--2---2--2---2--2---0--0-| D|3--3---3--3---3--3---0--0-| A|-----3------3-------------| E|-------------------3------| C G E|------------------------------- B|---1--1---1--1---3--3---3--3--- G|---0--0---0--0---0--0---0--0--- D|---2--2---2--2---0--0---0--0--- A|-3------3--------------------3- E|---------------3------3-------- F G E|--------------------------| B|1--1---1--1---1--1---3--3-| G|2--2---2--2---2--2---0--0-| D|3--3---3--3---3--3---0--0-| A|-----3------3-------------| E|-------------------3------| C G F I'm in the corner, watching you G kiss her, oh,oh,oh C G I'm right over here, why can't you F G see me, oh,oh,oh Am G E|------------------------------- B|---1--1---1--1---3--3---3--3--- G|---2--2---2--2---0--0---0--0--- D|------------------------------- A|-0------0--------------------3- E|---------------3------3-------- F E|--------------------------| B|1--1---1--1---1--1---1--1-| G|2--2---2--2---2--2---2--2-| D|--------------------------| A|-----3------3------3------| E|--------------------------| Am G E|------------------------------- B|---1--1---1--1---3--3---3--3--- G|---2--2---2--2---0--0---0--0--- D|------------------------------- A|-0------0--------------------3- E|---------------3------3-------- F E|--------------------------| B|1--1---1--1---1--1---1--1-| G|2--2---2--2---2--2---2--2-| D|--------------------------| A|-----3------3------3------| E|--------------------------| Am G I'm giving it my all, but I'm not F the guy you're taking home, ooo Am G F I keep dancing on my own [Refrão] C G F I'm in the corner, watching you G kiss her, oh,oh,oh C G I'm right over here, why can't you F G see me, oh,oh,oh Am G I'm giving it my all, but I'm not F G the guy you're taking home, ooo Am G F I keep dancing on my own [Ponte] F G Am So far away but still so near G F The lights come on, the music dies G Am But you don't see me standing here
Composición: Patrik Jens Berger / Robin Miriam CarlssonColaboración y revisión: Ivan GasparettoRafaella CorsiAlisson MorningstarPaulo Araújoy más 9