Uma Chance

Someday

B
234
X24442
B5
134
X244XX
B9
34
X24422
E
123
022100
E5
12
022XXX
E9
123
024100
F#
234
244322
F#5
134
244XXX
G#m
34
466444
G#m5
34
466444
G#m7
1234
4X444X
Tono: G
#1t1#Intro:
  B                                    F#
#1t2#E|------------------------------------|-2------------------------------------|
A|-2----------------------------------|-2------------------------------------|
D|-----4-------4-------------4--------|-----4---------4------------4---------|
G|---------3-------------3---------3--|----------3-------------3---------3---|
B|-------------------0----------------|---------------------0----------------|
E|------------------------------------|--------------------------------------|#/1t2##/1t1#
#2t1#   G#m                                  E9
#2t2#E|-4----------------------------------|-0------------------------------------|
A|------------------------------------|--------------------------------------|
D|-----4-------4-------------4--------|-----4---------4----------------------|
G|---------3-------------3---------3--|----------4-----------------------4---|
B|-------------------0----------------|---------------------2h-4---2---------|
E|------------------------------------|--------------------------------------|#/2t2##/2t1#

B9          F#
Só sei Que foi você
G#m7    E9
Que me conquistou
B9     F#       G#m7    E9
De uma hora pra outra  (hora pra outra)
B9          F#
Fico com vergonha
       G#m7    E9           B9 F#          G#m7    E
De dizer o que sinto por você (sinto por você)

Refrão:
B5        F#5       G#m5
Sobre o passado deixei
      E5
(Lagrimas de amor)
B5     F#5     G#m5  E5
Você nem me olhou
B5        F#5
Cansei de correr atrás
G#m5           E5      B5       F#5         G#m5  E5
De um amor que me negou

B5    F#5         G#m5
O silencio que existe
       E5
Entre nós
B5    F#5      G#m5  E5
Ainda vai passar
B5     F#5       G#m5  E5
E tudo vai melhorar
B5       F#5     G#m5  E5
Se nós seremos amigos .

Refrão:
B B5        F#5       G#m5
Sobre o passado deixei
      E5
(Lagrimas de amor)
B5     F#5     G#m5  E5
Você nem me olhou
B5        F#5
Cansei de correr atrás
G#m5           E5      B5       F#5         G#m5  E5
De um amor que me negou

Solo: B5  F#5  G#m5  E5

B5  F#5  G#m5  E5
nananana yeh (3x)

Ponte:
G#m5
Mas mesmo assim
      F#5
Eu me sinto Dependente
      E5     F#5
De você(de você)
G#m5               F#
Queria apenas um minuto
            E5
Pra me entender

Refrão:
B5        F#5       G#m5
Sobre o passado deixei
      E5
(Lagrimas de amor)
B5     F#5     G#m5  E5
Você nem me olhou
B5        F#5
Cansei de correr atrás
G#m5           E5      B5       F#5         G#m5  E5
De um amor que me negou

B5        F#5
Cansei de correr atrás
G#m5         E5      B5       F#5         G#m5           E5
De amor que me negou                      que me negou
    B5       F#5         G#m5  E
Que me negou

( B5  F#5  G#m5  E5 ) (2x)

( B5 )
Composición: Nanai / Pepe / RafahColaboración y revisión: Rafael bueno