busca

Whiter Shade Of Pale

Procol Harum

Quer fazer aulas de música com a gente? Responda essas perguntas
e nos ajude nesse projeto! →
Tom: C
I've alredy sent this one, but it came out not well,
without intro and some measures. So, here I am again!

It's quite simple, but really beatifull song.
There are two stretches in the intro, but they are not impossible.
Just try. At least you can play only higher notes.

I wrote also chord's name over tabline, but I'm not really sure
they are all right (like FaddB, for example)

For any comment -

Intro:

  C               Em               Asus4  C
 |       |       |       |        |       |       |       |
|0-------------------------------|------------------------0-------|
|1---------------0---------------|----3---1---0---1---3-------1---|
|0-------0-------0-------0-------|2---------------0---------------|
|2-------2-------2-------2-------|2-------2-------2-------2-------|
|3---3-------3---2---2-------2---|0---0---3---0---3-------3-------|
|--------------------------------|----------------3---3-------3---|

  F               Am    Asus2      Dm     Dm7
 |       |       |       |        |       |       |       |
|5-----------------------7---8---|1-0-1---------------------------|
|--------------------------------|------------------------3-------|
|2-------2-------2---------------|--------------------------------|
|3-------3-------2-------7-------|0-------3-------3-------3-------|
|3---3-------3-------3---7-------|0---0---5---0---3---0---3---0---|
|----------------0-----------8---|--------------------------------|

  G               FaddB           Em                      Em7
 |       |       |       |        |       |       |       |
|7-----------------------8---10--|3-1-3---------------1---0---1---|
|0-------0-------0---------------|--------------------------------|
|0-------0-----------------------|0-------0-------0-------0-------|
|0---0-------0---3---0---9---0---|2-------2-------0-------0-------|
|------------------------8-------|2---2-------2-------2-------2---|
|----------------1---------------|0-------------------------------|

  C               F                G       C   Dm          G7
 |       |       |       |        |       |       |       |
|1---0-----------5---------------|3---------------1---0---1-------|
|--------3---1-----------0---1---|0---0---0---3---3-------0---3---|
|0-------0-------2---2---2-------|0-------5-------4---------------|
|2-------2-------3-------3-------|0---0---5---0-------0---3---0---|
|3---3-------3-------3-------3---|--------------------------------|
|----------------1---------------|3-----------------------3-------|

Verses begin
  C               Em               Am              C
 |       |       |       |        |       |       |       |
|0-------------------------------|--------------------------------|
|1---------------0---------------|1-------------------------------|
|0-------0-------0-------0-------|2---------------0---------------|
|2-------2-------2-------2-------|2-------2-------2-------2-------|
|3---3-------3---2---2-------2---|0---0---3---0---3-------3-------|
|--------------------------------|----------------3---3-------3---|
           We skipped the light fandango
           She said "There is no reason,
Composição: Garry Brooker / Keith Reid

Clipes

Cifra Club Pro

Aproveite o Cifra Club com benefícios exclusivos e sem anúncios
Cifra Club Pro
Aproveite o Cifra Club com benefícios exclusivos e sem anúncios