Extraordinary

Liz Phair

Tono: G
Liz Phair
Tabbed by: The Brent
Anything to: *

Standard tuning

Intro

#1t1##1t2#e-----------------------------------------------------------
B-----------------------------------------------------------
G-----------------------------------------------------------
D-3-2---2-2-2---7-7-7--7-7-7---3-3-2---2-2-2---7-7-7--7-7-7-
A-3-2---2-2-2---7-7-7--7-7-7---3-3-2---2-2-2---7-7-7--7-7-7-
E-1-------------5-5-5--5-5-5---1-1-------------5-5-5--5-5-5-#/1t2##/1t1#

Verse

You think that I go home at night
Take off my clothes, turn out the lights
But I burn letters that I write

#2t1##2t2#e-----------------------------------------------------------
B-----------------------------------------------------------
G-----------------------------------------------------------
D-----4-4-4-4-4-4-4-7-7-7-7-7-7-7-7-7-----------------------
A-----4-4-4-4-4-4-4-7-7-7-7-7-7-7-7-7-----------------------
E-----2-2-2-2-2-2-2-5-5-5-5-5-5-5-5-5-----------------------#/2t2##/2t1#

To you, to make you love me


Yeah, I drive naked through the park
And run the stop sign in the dark
Stand in the street, yell out my heart

#3t1##3t2#e-----------------------------------------------------------
B-----------------------------------------------------------
G-----------------------------------------------------------
D-----4-4-4-4-4-4-4-7-7-7-7-7-7-7-7-7-----------------------
A-----4-4-4-4-4-4-4-7-7-7-7-7-7-7-7-7-----------------------
E-----2-2-2-2-2-2-2-5-5-5-5-5-5-5-5-5-----------------------#/3t2##/3t1#

To make, to make you love me


CHORUS

#4t1##4t2#e-----------------------------------------------------------------
B-----------------------------------------------------------------
G-6-6-6-6-6-6-6-6---------------------------------4-4-4-4-4-4-4-4-
D-6-6-6-6-6-6-6-6-7-7-7-7-7-7-7-7-4-4-4-4-4-4-4-4-4-4-4-4-4-4-4-4-
A-4-4-4-4-4-4-4-4-7-7-7-7-7-7-7-7-4-4-4-4-4-4-4-4-2-2-2-2-2-2-2-2-
E-----------------5-5-5-5-5-5-5-5-2-2-2-2-2-2-2-2-----------------#/4t2##/4t1#

I     am     extraordinary,       if you'd ever get to know me
I     am     extraordinary,       I am just your ordinary


#5t1##5t2#e-----------------------------------------------------------
B-----------------------------------------------------------
G-----------------------------------------------------------
D-3-2---2-2-2---7-7-7--7-7-7---3-3-2---2-2-2---7-7-7--7-7-7-
A-3-2---2-2-2---7-7-7--7-7-7---3-3-2---2-2-2---7-7-7--7-7-7-
E-1-------------5-5-5--5-5-5---1-1-------------5-5-5--5-5-5-#/5t2##/5t1#

Average every day sane psycho; Supergoddess; average every day sane psycho



#6t1##6t2#e-------------------------------------------------2-2-2-2-2-2-2-2---
B-------------------------------------------------3-3-3-3-3-3-3-3---
G-------------------------------------------------2-2-2-2-2-2-2-2---
D-4-4-4-4-4-4-4-4-7-7-7-7-7-7-7-7-2-2-2-2-2-2-2-2-------------------
A-4-4-4-4-4-4-4-4-7-7-7-7-7-7-7-7-2-2-2-2-2-2-2-2-------------------
E-2-2-2-2-2-2-2-2-5-5-5-5-5-5-5-5-----------------------------------#/6t2##/6t1#

See me jump through hoops for you.  You stand there watching me performing
What exactly do you do?  Have you ever thought it's you that's boring?


#7t1##7t2#e-----------------------------------------------------
B-----------------------------------------------------
G-----------------------------------------------------
D-7-7-7-7-7-7-7-7-9-9-9-9-9-9-9-9-9-9-9-9-9-9-9-9-----
A-7-7-7-7-7-7-7-7-9-9-9-9-9-9-9-9-9-9-9-9-9-9-9-9-----
E-5-5-5-5-5-5-5-5-7-7-7-7-7-7-7-7-7-7-7-7-7-7-7-7-----#/7t2##/7t1#

Who the hell are you?
Composición: Colaboración y revisión: