Am
123
X02210
E
123
022100
F
234
133211
G
123
320003
Tono: G
INTRO

Base: Am  F  G  E


  x3

E|----0----1-1--------------------
B|----1----1-1--------------------
G|----2----2-2---2-0-2-0--0-------
D|--------------------------3-2---
A|--0----2------------------------
E|-------1------------------------

E|------------| 
B|------------| 
G|------------| 
D|------------| 
A|----0-3-0---| 
E|0-3---------| 



E|----0----1-1--------------------
B|----1----1-1--------------------
G|----2----2-2---2-0-2-0--0-------
D|--------------------------3-2---
A|--0----2------------------------
E|-------1------------------------


Base:  F  E  Am


E|-----------------|-------------
B|--1-0------------|-------------
G|------2-0--------|-------------
D|----------3--2---|---------7-9-
A|---------------0-|--7-8-10-----
E|-----------------|-------------

E|----------------------| 
B|----------------------| 
G|---9-10--9------------| 
D|10----------7---3-2---| 
A|----------------------| 
E|----------------------| 


VERSOS

FILL 1


E|-------------| 
B|-------------| 
G|-------------| 
D|-------------| 
A|------0-3-0--| 
E|--0-3--------| 


FILL 2


E|-------------| 
B|-------------| 
G|-------------| 
D|-------------| 
A|---2-3-------| 
E|-------------| 


Am           F      E
¿Era todo? Pregunté.
Am (FILL 1) Soy un iluso. Am F E No nos dimos nada más, Am (FILL 2) sólo un buen gesto. Am F G E (x2) Mordí el anzuelo una vez más. Siempre un iluso. Nuestra estrella se agotó Y era mi lujo. ( Am F G E ) (x2) SOLO: Base: F E Am E|-----------------|------------- B|--1-0------------|------------- G|------2-0--------|------------- D|----------3--2---|---------7-9- A|---------------0-|--7-8-10----- E|-----------------|------------- E|---------------------------| B|-----10--8b(10)r8---8-10---| G|---9--------------9--------| D|10-------------------------| A|---------------------------| E|---------------------------| E|-------------------------------- B|-------------------------------- G|--7b(9)r7--5-9----------5------- D|--------------------5-7----7---- A|------------------7-----------7- E|-------------------------------- E|------------------------| B|------------------------| G|----5-------------------| D|5-7----3----------------| A|------------------------| E|------------------------| E|--------------------------- B|--------------------------- G|--7b(9)r7--5---7b(9)r7--5-- D|--------------------------- A|--------------------------- E|--------------------------- E|-----------------------------| B|-----------------------------| G|7b(9)r7--5-4-5-4-------------| D|-----------------2-----------| A|-----------------------------| E|-----------------------------| E|----------------------7-8-10-8- B|------------------10----------- G|----------------9-------------- D|---------7-9-10---------------- A|--7-8-10----------------------- E|------------------------------- E|7-8-7------| B|------10---| G|-----------| D|-----------| A|-----------| E|-----------| E|---7b(8)r7---------------------- B|------------10---10------------- G|---------------9---------------- D|-------------------------------- A|-------------------------------- E|-------------------------------- Ella fue por esa vez mi héroe vivo, bah fue mi único héroe en este lío. La más linda del amor que un tonto ha visto soñar Metió, metió mi rocanrol bajo este pulso Final: Am
Composición: Beilinson-SolariColaboración y revisión: Fran Fernandez

Utilizamos cookies para personalizar sua experiência. Ao acessar o site, você concorda com a nossa Política de Privacidade.