Wonderwall

Oasis

A7(4)
12
X02030
C9
34
X35533
D
123
XX0232
D11/F#
1234
2XX233
D4
123
XX0233
Em7
123
022030
G
123
320003
Tono: G
[Intro 4x] Em7  G  D4  A7(4)

[Primeira Parte]

Em7           G
    Today is gonna be the day
             D4
That they're gonna
                  A7(4)
Throw it back to you
Em7              G
    By now you should've somehow
   D4                   A7(4)
Realized what you gotta do
Em7                  G
I don't believe that anybody
D4              A7(4)
Feels the way I do
           C9  D4  A7(4)
About you now


Em7                G
   Backbeat, the word was on the 
street
         D4                   A7(4)
That the fire in your heart is out
Em7                  G
   I'm sure you've heard it all 
before
        D4                 A7(4)
But you never really had a doubt
Em7                  G
I don't believe that anybody
D4              A7(4)
Feels the way I do
           Em7  G  D4  A7(4)
About you now



[Dedilhado Pré-Refrão]

Parte 1 de 3 (2x)
   C9      D         Em7
E|-3--3----2h3p2------3--------
B|-3----3--3-----3----3--------
G|-0-------2-------2--0--------
D|-2-------0----------2------0-
A|-3------------------2--0h2---
E|--------------------0--------
   ↓       ↓          ↓        

E|-------------| 
B|-------------| 
G|----0-----0--| 
D|------0h2----| 
A|0h2----------| 
E|-------------| 
               



Parte 2 de 2  
   C9    D         G       D11/F#   
E|-3-3---2h3p2-----3-3-----3-3---
B|-3---3-3-----3---3---3---3---3-
G|-0-----2-------2-0-----0-0-----
D|-2-----0---------0-------0-----
A|-3---------------2-------0-----
E|-----------------3-------2-----
   ↓     ↓         ↓             
  Em7
E|--3-3-----| 
B|--3---3---| 
G|0-0-----0-| 
D|--0-------| 
A|--2-------| 
E|--0-------| 
            



Parte 3 de 3  
   G        A7(4)
E|-3-3----------0-------0-------0-
B|-3---3----3-3---3-3-3---3-3-3---
G|-0-----0--0-------0-------0-----
D|-0--------2-------2-------2-----
A|-2--------0-------0-------0-----
E|-3------------------------------
   ↓        ↓       ↓       ↓     

E|------0---| 
B|3-3-3---3-| 
G|--0-------| 
D|--2-------| 
A|--0-------| 
E|----------| 
  ↓         


    C9
And all the roads
    D                Em7
We have to walk are winding
   C9
And all the lights
D Em7 That lead us there are blinding C9 D There are many things that I G D11/F# Em7 Would like to say to you G A7(4) But I don't know how [Refrão] C9 Em7 G Because maybe Em7 You're gonna be the one C9 Em7 G That saves me Em7 C9 Em7 G And after all Em7 C9 Em7 G Em7 You're my wonderwall A7(4) [Segunda Parte] Em7 G Today was gonna be the day D4 But they'll never throw it back to A7(4) you Em7 G By now you should've somehow D4 A7(4) Realized what you're not to do Em7 G I don't believe that anybody D4 A7(4) Feels the way I do Em7 G D4 A7(4) About you now [Pré-Refrão] C9 And all the roads D Em7 That lead you there were winding C9 And all the lights D Em7 That light the way are blinding C9 D There are many things that I G D11/F# Em7 Would like to say to you G A7(4) But I don't know how [Refrão] C9 Em7 G I said maybe Em7 You're gonna be the one C9 Em7 G That saves me Em7 C9 Em7 G And after all Em7 C9 Em7 G Em7 You're my wonderwall C9 Em7 G I said maybe Em7 You're gonna be the one C9 Em7 G That saves me Em7 C9 Em7 G And after all Em7 C9 Em7 G Em7 You're my wonderwall C9 Em7 G I said maybe Em7 You're gonna be the one C9 Em7 G That saves me Em7 You're gonna be the one C9 Em7 G That saves me Em7 You're gonna be the one C9 Em7 G That saves me (C9 Em7 G Em7) (4x)
Composición: Noel GallagherColaboración y revisión: Caico AntunesCarlos JuniorAnna GabriellaMário Lima
videoclase Wonderwall (aula de violão completa)