Só Quer Vrau

MC MM

Dm
123
XX0231
E7
1234
022130
F
234
133211
Gm
34
355333
Tono: G
[Intro] Dm

Essas malandra assanhadinha
Que só quer vrau, só quer vrau
Só quer vrau, vrau, vrau
           Gm            F
Vem pra favela ficar doidinha
        E7             Dm
Então, vem sentando aqui
(Senta aqui, senta aqui, vai)

Essas malandra (vai, vai) assanhadinha (vai, vai)
Que só quer vrau, só quer vrau
Só quer vrau, vrau, vrau
           Gm                       F
Vem pra favela (vai, vai) ficar doidinha (vai, vai)
        E7             Dm
Então, vem sentando aqui

Vai nov-, vai nov, vai nov-, vai nov-
Vai nov-, vai novinha da favela
O ritmo é esse aqui
Senta aqui, senta aqui, senta aqui
Senta aqui, senta aqui, senta aqui, senta (vai, vai, vai)

Senta aqui, senta aqui, senta aqui
Senta aqui, senta aqui, senta aqui, senta (vai, vai, vai)
Senta aqui, senta aqui, senta aqui
Senta aqui, senta aqui, senta aqui, senta (vai, vai, vai)
Vai, vai
         Dm
Essas malandra (vai, vai) assanhadinha (vai, vai)
Que só quer vrau, só quer vrau
Só quer vrau, vrau, vrau
           Gm                       F
Vem pra favela (vai, vai) ficar doidinha (vai, vai)
        E7             Dm
Então, vem sentando aqui

[Solo] Dm  Gm  F  E7

#1t1##1t2#E|-------------------------------------------5-5-5--|
B|-3-3-5-6-3--3-3-5-6-3--3-3-5-6--3-5-6--3-5--------|
G|--------------------------------------------------|
D|--------------------------------------------------|
A|--------------------------------------------------|
E|--------------------------------------------------|#/1t2##/1t1#

#2t1##2t2#E|-3-5-6-3--6-5-3-5----------5---5----|
B|------------------6--6-6-5---5---3--|
G|------------------------------------|
D|------------------------------------|
A|------------------------------------|
E|------------------------------------|#/2t2##/2t1#

         Dm
Essas malandra assanhadinha
Que só quer vrau, só quer vrau
Só quer vrau, vrau, vrau
           Gm            F
Vem pra favela ficar doidinha
        E7             Dm
Então, vem sentando aqui
(Senta aqui, senta aqui, vai)

Essas malandra assanhadinha
Que só quer vrau, só quer vrau
Só quer vrau, vrau, vrau
           Gm            F
Vem pra favela ficar doidinha
        E7             Dm
Então, vem sentando aqui

Vai nov-, vai nov, vai nov-, vai nov-
Vai nov-, vai novinha da favela
O ritmo é esse aqui
Senta aqui, senta aqui, senta aqui
Senta aqui, senta aqui, senta aqui, senta (vai, vai, vai)

Senta aqui, senta aqui, senta aqui
Senta aqui, senta aqui, senta aqui, senta (vai, vai, vai)
Senta aqui, senta aqui, senta aqui
Senta aqui, senta aqui, senta aqui, senta (vai, vai, vai)
Vai, vai
         Dm
Essas malandra assanhadinha
Que só quer vrau, só quer vrau
Só quer vrau, vrau, vrau
           Gm            F
Vem pra favela ficar doidinha
        E7             Dm
Então, vem sentando aqui

[Solo] Dm  Gm  F  E7  Dm

#3t1##3t2#E|-------------------------------------------5-5-5--|
B|-3-3-5-6-3--3-3-5-6-3--3-3-5-6--3-5-6--3-5--------|
G|--------------------------------------------------|
D|--------------------------------------------------|
A|--------------------------------------------------|
E|--------------------------------------------------|#/3t2##/3t1#

#4t1##4t2#E|-3-5-6-3--6-5-3-5----------5---5----|
B|------------------6--6-6-5---5---3--|
G|------------------------------------|
D|------------------------------------|
A|------------------------------------|
E|------------------------------------|#/4t2##/4t1#
Composición: DJ RD / MC MMColaboración y revisión: Thiago AlmeidaEverton Russijoao lannerMagdiel Silva