Sua Cara (feat. Anitta & Pabllo Vittar)

Major Lazer

A5
12
X022XX
F5
134
133XXX
G5
134
355XXX
Tono: G
[Intro] A5

[Solo Intro]

#1t1#Parte 1
#1t2#E|-8p7----8p7------------7---8p7----8p7------------7--|
B|-----10-----10----8-10---------10-----10----8-10----|
G|----------------9-------------------------9---------|
D|----------------------------------------------------|
A|----------------------------------------------------|
E|----------------------------------------------------|#/1t2##/1t1#

#2t1#Parte 2
#2t2#E|-8p7----8p7------------7--------7-8p7-----------7---|
B|-----10-----10----8-10-------10-------10---8-10-----|#/2t2##/2t1#
#3t1#[|----------------9----------9-------------9----------|
#3t2#D|----------------------------------------------------|
A|----------------------------------------------------|
E|----------------------------------------------------|#/3t2##/3t1#

[Primeira Parte]

A5
   Você prepara, mas não dispara
Você repara, mas não encara
Se acha o cara, mas não me para
Tá cheio de maldade, mas não me encara

Você já tá querendo e eu também
Mas é cheio de história e de porém
Virou covarde, tô com vontade
Mas você tá demorando uma eternidade


[Pré-refrão]

A5              G5
   Se você não vem
          F5      A5
Eu vou botar pressão
                G5
Não vou te esperar
            F5   A5
Tô cheia de op__ção
               G5        F5     A5
Eu não sou mulher de aturar sermão

Me encara, se prepara

Que eu vou jogar bem na sua cara


[Refrão]

A5
Bem na sua cara
Eu vou rebolar bem na sua cara
Bem na sua cara
Hoje eu vou jogar bem na sua cara

[Solo Refrão]

#4t1#Parte 1
#4t2#E|------7-8p7-----------7-------7-8p7-----------7-----|
B|---10-------10---8-10------10-------10---8-10-------|
G|-9-------------9---------9-------------9------------|
D|----------------------------------------------------|
A|----------------------------------------------------|
E|----------------------------------------------------|#/4t2##/4t1#

#5t1#Parte 2
#5t2#E|-12-8p7----8p7-----------7-12-8p7----8p7----------7-|
B|--------10-----10---8-10----------10----10---8-10---|
G|------------------9------------------------9--------|
D|----------------------------------------------------|
A|----------------------------------------------------|
E|----------------------------------------------------|#/5t2##/5t1#

#6t1#Parte 3
#6t2#E|-12-8p7----8p7-----------7-------7-8p7-----------7--|
B|--------10-----10---8-10------10-------10---8-10----|
G|------------------9---------9-------------9---------|
D|----------------------------------------------------|
A|----------------------------------------------------|
E|----------------------------------------------------|#/6t2##/6t1#

[Segunda Parte]

A5
Cheguei
Tô preparada pra atacar
Quando o grave bater, eu vou quicar
Na sua cara vou jogar e rebolar

[Terceira Parte]

       A5
Eu tô linda, livre, leve e solta
 G5           F5
Doida pra beijar na boca
 A5
Linda, livre, leve e solta
 G5           F5
Doida pra beijar na boca
 A5
Linda, livre, leve e solta
 G5           F5
Doida pra beijar na boca
 A5
Linda, livre, leve e solta

Que eu vou jogar bem na sua cara

[Refrão]

A5
   Bem na sua cara
Eu vou rebolar bem na sua cara
Bem na sua cara
Hoje eu vou jogar bem na sua cara

[Quarta Parte]

A5
   Você prepara, mas não dispara
Bem na sua cara
Você repara, mas não encara
Bem na sua cara
Se acha o cara, mas não me para
Bem na sua cara
Se acha o cara, mas não me para
Bem na sua cara

[Pré-refrão]

A5              G5
   Se você não vem
          F5      A5
Eu vou botar pressão
                G5
Não vou te esperar
            F5   A5
Tô cheia de op__ção
               G5        F5     A5
Eu não sou mulher de aturar sermão

Me encara, se prepara

Que eu vou jogar bem na sua cara
Composición: Anitta / Diplo / Jillionaire / Pabllo Vittar / Walshy FireColaboración y revisión: Leandro SandimCaroline Leroy
videoclase Sua Cara (feat. Anitta & Pabllo Vittar) (aula de violão completa)