Before First Light

Magnum

A
123
X02220
B
234
X24442
D
123
XX0232
E
123
022100
G
123
320003
Tono: G




                  (transcribed in a 
hurry by mEeK, second attempt)



Every step I take along the 
way........

E||-------|----------------------|----------------------|----------------------|
B||-------|----------------------|----------------------|----------------------|
G||-------|------------5---------|--7----7--------------|----------------------|
D||--9/---|--2---------5---------|--7----7--------------|------------2---------|
A||--9/---|--2----x----3----x----|--5----5----0---------|-------2----2----x----|
E||--7/---|--0----0---------0----|------------0----2----|--3---------0----0----|




----------------------|-----------
-----------------6----|--6h---5---
--5---------7----5----|--5----5---
--5---------7----7----|--7----7---
--3----x----5----0----|--0----0---
-------0--------------|-----------

-|-----------|| 
-|-6h---5----|| 
-|-5----5----|| 
-|-7----7----|| 
-|-0----0----|| 
-|-----------|| 




E||----------------------|------------0----2----|--3----0----0---------|
B||----------------------|------------0----3----|--3----0---------0----|
G||--7----7--------------|------------0----2----|--0----2--------------|
D||--7----7--------------|------------2----0----|--0----2--------------|
A||--5----5----0---------|-------2----2----0----|--x----0--------------|
E||------------0----2----|--3---------0---------|--3-------------------|


                                  

 |  --> I stand patiently waiting 

 |here..... 



-------0--------------|--0--------
------------0---------|-------0---
--2--------------2----|-----------
----------------------|-----------
----------------------|-----------
----------------------|-----------

-|------0----|------------0---------
-|-----------|--0--------------0----
-|-2---------|-------2--------------
-|-----------|----------------------
-|-----------|----------------------
-|-----------|----------------------




-------0--------------|| ------------0---------|| --2--------------2----|| ----------------------|| ----------------------|| ----------------------|| Oh oh!! -| -| -| -| -| -|(and just play as in the -| -| -| -| -| -|beginning....) E||-------------------------|------------------------|------------| B||-------------------------|------------------------|------------| G||-------------------------|------------------------|------------| D||-------------10----10----|--9---------------------|------------| A||-------10----------------|-------12----10----9----|--0----7----| E||--8----------------------|------------------------|--0----0----| ----------------------|----------- ----------------------|----------- ----------------------|----------- -------7b---7----5----|--4-------- ----------------------|-------7--- --0-------------------|----------- -|-----------|---------------------- -|-----------|---------------------- -|-----------|-------------------9-- -|-4----5----|-------------10----9-- -|-----------|-------10----------7-- -|-----------|--8------------------- ------------|| ------------|| --4---------|| --4---------|| --2----x----|| -------0----|| --> Dive bomb! Solo: How do they tab this?? :) E||-----------------------|------------|--10b---10b---10b---10b---| B||------------------8----|--8---------|--------------------------| G||------------------7----|------9-----|--------------------------| D||--------2---------0----|------------|--------------------------| A||--12/---2----x----0----|------------|--------------------------| E||--12/---0----x---------|------------|--------------------------| --10b-------------15----|--17---- --------8---------------|-------- -------------9----------|-------- ------------------------|-------- ------------------------|-------- ------------------------|-------- -|15----------15----|--17----15---- -|------17----------|-------------- -|------------------|-------------- -|------------------|-------------- -|------------------|-------------- -|------------------|-------------- ------15----| 17----------| ------------| ------------| ------------| ------------| --15----17----19----------|------- --------------------17----|------- --------------------------|--14--- --------------------------|------- --------------------------|------- --------------------------|------- -|-------12----------| -|-12----------15----| -|-------------------| -|-------------------| -|-------------------| -|-------------------| --------------------------|------- --12----------------------|------- --------14b---14----12----|------- --------------------------|--14--- --------------------------|------- --------------------------|------- -|------------------|--------------- -|------------------|--------------- -|-14----12---------|--------------- -|------------------|--4----5------- -|-------------7----|------------7-- -|------------------|--------------- -|-------| -|-------| -|-------| -|--4----| -|-------| -|-------| ----------------------|----------- ----------------------|--8-------- -----------------7----|-------9--- --5----7----9---------|----------- ----------------------|----------- ----------------------|----------- -|-15----14----|--15----12----14---- -|-------------|-------------------- -|-------------|-------------------- -|-------------|-------------------- -|-------------|-------------------- -|-------------|-------------------- -|------| -|12----| -|------| -|------| -|------| -|------| -------------------------|------- --0----------------------|------- -------12----12----------|--9---- -------------------14----|------- -------------------------|------- -------------------------|------- -|---------------|--------------------------| -|---------------|--------------------------| -|9----9----9----|--11----11----11----11----| -|---------------|--------------------------| -|---------------|--------------------------| -|---------------|--------------------------| --------------------------|------- --------------------------|------- --12----12----12----12----|--14--- --------------------------|------- --------------------------|------- --------------------------|------- -|-------------|-------------15---- -|-------------|--12--------------- -|-14----14----|--------9---------- -|-------------|------------------- -|-------------|------------------- -|-------------|------------------- -|14----| -|------| -|------| -|------| -|------| -|------| --15----12----14----------|------- --------------------12----|--15--- --------------------------|------- --------------------------|------- --------------------------|------- --------------------------|------- -|------------------|--------------- -|------------------|--------------- -|-12---------------|--------------- -|-------14---------|--------------- -|-------------0----|------------2-- -|-------------0----|--2----3------- -|-------| -|-------| -|-------| -|-------| -|-------| -|--0----| ----------------------|----------- ----------------------|----------- ------------5---------|--7----7--- ------------5---------|--7----7--- ------------3----x----|--5----5--- --2----3---------x----|----------- -|-----------|------------|| -|-----------|------------|| -|-----------|------------|| -|-----------|------------|| -|-----------|-------2----|| -|-0----2----|--3---------|| And just slightly different.... ___________________________________________________________ Cya!
Composición: Colaboración y revisión: