Toda Forma de Amor

Lulu Santos

C
123
X32010
C5
123
X555XX
Cm
1234
X55043
D
123
XX0232
D5(9)
12
XX0230
Em
12
022000
Em7
123
022030
G5
12
x00033
G5+
13
3X100X
Tono: G
* A corda A deve ser afinada em G

Intro: G5  Em  D5(9)  C5


   G5
E|-------------------------------
B|-2-2-2-2--2-2-2-2--2-2-2-2---2-
G|-0-0-0-0--0h2-0-0--0-0-0-2h4-2-
D|-0-2-0-0--0-0-0-0--0-2-0-0---0-
G|-0-0-0-0--0-0-0-0--0-0-0-0---0-
E|-------------------------------

E|----------|       
B|2-----2-2-|       
G|0h2p0-0-0-|  (2x) 
D|------2-0-|       
G|------0-0-|       
E|----------|       



   G5
E|-------------------------------
B|-2-2-2-2--2-2-2-2--2-2-2-2---2-
G|-0-0-0-0--0h2-0-0--0-0-0-2h4-2-
D|-0-2-0-0--0-0-0-0--0-2-0-0---0-
G|-0-0-0-0--0-0-0-0--0-0-0-0---0-
E|-------------------------------

E|----------| 
B|2-2-2-----| 
G|0-0-0-----| 
D|0-2-0-----| 
G|0-0-0-----| 
E|----------| 


   Em
E|-------------------------------
B|-------------------------------
G|-0-0-0-0--0h2-0-0--0-0-0-2h4-2-
D|-0-2-0-0--0-0-0-0--0-2-0-0---0-
G|-4-4-4-4--4-4-4-4--4-4-4-4---4-
E|-0-0-0-0--0-0-0-0--0-0-0-0---0-

E|----------| 
B|----------| 
G|0-0-0-----| 
D|0-2-0-----| 
G|4-4-4-----| 
E|0-0-0-----| 


   D5(9)
E|-------------------------------
B|-2-2-2-2--2-2-2-2--2-2-2-2---2-
G|-0-0-0-0--0h2-0-0--0-0-0-2h4-2-
D|-0-2-0-0--0-0-0-0--0-2-0-0---0-
G|-------------------------------
E|-------------------------------

E|----------| 
B|2-2-2-----| 
G|0-0-0-----| 
D|0-2-0-----| 
G|----------| 
E|----------| 


   C5
E|--------------------------------
B|--------------------------------
G|--5-5-5--4-4-4--2-2-2--4-4-4--5-
D|--5-5-5--5-5-5--5-5-5--5-5-5--5-
G|--5-5-5--5-5-5--5-5-5--5-5-5--5-
E|--------------------------------

E|---------| 
B|--3------| 
G|5-5------| 
D|5-5------| 
G|5-5------| 
E|---------| 


G5
 Eu não pedi pra nascer
Em                      Em7
   Eu não nasci pra perder
D                           
 Nem vou sobrar de vítima das 
   C5
circunstâncias

G5
 Eu tô plugado na vida
Em Em7 Eu tô curando a ferida D Às vezes eu me sinto uma bala C5 (Intro) perdida G5 Você é bem como eu Em Em7 Conhece o que é ser assim D Só que dessa história ninguém sabe C5 o fim G5 Você não leva pra casa Em Em7 E só traz o que quer D C5 Eu sou teu homem, você é minha mulher G5 E a gente vive junto G5+ E a gente se dá bem C Não desejamos mal Cm D5(9) A quase ninguém G5 E a gente vai à luta G5+ E conhece a dor C Consideramos justa Cm D5(9) Toda forma de amor
Composición: Lulu SantosColaboración y revisión: Caroline LeroyWevertonMatheus Santos
videoclase Toda Forma de Amor (aula de violão)

Utilizamos cookies e outras tecnologias semelhantes para melhorar e personalizar sua experiência de uso. Ao navegar nos produtos, você concorda com as condições descritas em nossa Política de Privacidade.