Dueña de Tu Amor

Lucero

A
123
X02220
C#m
234
X46654
D
123
XX0232
E
123
022100
Fm
34
133111
Tono: A

Riff:

E|--------------------------------
A|--------------------------------
D|-2--4---------------------------
G|------2--4--S6--4--2--4---4--S6-
B|------------------------5-------
E|--------------------------------

E|----------------------| 
A|----------------------| 
D|---------------2--4---| 
G|--4--S6--4--2-------2-| 
B|----------------------| 
E|----------------------| 


   A
Esta Vida Me Enseño A No Doblegar,

El Corazon
D                          
Mi Destino Yo Llevaba De Las 
    E
Riendas,
 A
Tuve Fuerzas Cuando El Sol Se Me 
Escondio

Y Sola Yo...
 D                            E
Defendia Bien Lo Mio De Quien Sea.

 Fm              C#m
De Pronto Llegas Tu      (2x)
    D                    E
Llevando Mi Mundo A Otra Latitud
Fm   C#m     D
Entregame Tu Luz
E Y Hazme Tu Dueña... A Dueña De Tu Amor... C#m Dueña De Tu Abrazo Fm E Dueña De Los Dias Y Las Noches Para Amarnos A Eres Lo Que Espere.. C#m Mi Promesa Eterna... Fm Tu La Prueba Vida De Que Existe E Alma Gemela. Fm ( De Tu Amor Yo Soy La Dueña... Fm C#m E ) A Cuando Miro A Mi Pasado Y Yo No Se.. Como Llegue.. D E Sera Que Tu Me Estabas Esperando A Debe Ser Que El Universo Nos Junto.. Confavulo.. D Yo Ya Estaba Designada A E Ser Tu Dueña C#m D Tu Eres Totalmente Mio C#m A Somos Como Arena Y Mar... D E La Mas Perfecta Cualidad.. Dueña De Tu Amorr...
Composición: Karla Aponte / Lucero Hogaza / Silvio RichettoColaboración y revisión: Ana Aureliano

Utilizamos cookies para personalizar sua experiência. Ao acessar o site, você concorda com a nossa Política de Privacidade.