Lights

Journey

A
123
X02220
Bm
234
X24432
C
123
X32010
D
123
XX0232
G
123
320003
Tono: G
#1t1#Tabed By: George Q
#1t2#E-Mail: xJimmy_P*#/1t2##/1t1#

I noticed there wasnt a good tab for this song so i decided to submit this one.

This is written in the order that its played.
Enjoy!

Key:
h = hammer on
p = pull off
X(Y) = X bend to Y
/Y = slide to Y
X/Y = slide from X to Y
X(Y)(X) = bend X to Y then release back to X

#2t1#INTRO:   D                    Bm                   D
#2t2#       e|--------------------|--------------------|--------------------|
       B|-----3--3h5--3--3---|-------3h5-3--------|-----3--3h5--3--3---|
       G|---2----2----2--4---|-----4-------4------|---2----2----2--4---|
       D|-0------------------|---4----------------|-0------------------|
       A|--------------------|-2------------------|--------------------|
       E|--------------------|--------------------|--------------------|#/2t2##/2t1#

#3t1#         A                    Bm                   C
#3t2#       e|--------------------|--------------------|-------------|-/5--3--2-|
       B|-------2h3-2--------|-------3h5-3--------|-------5-----|-/7--5--3-|
       G|-----2-------2------|-----4-------4------|-----5---5---|----------|
       D|---2----------------|---4----------------|---5-------5-|----------|
       A|-0------------------|-2------------------|-3-----------|----------|
       E|--------------------|--------------------|-------------|----------|#/3t2##/3t1#


#4t1#Verse:   D                    Bm               C
#4t2#       e|-------------------|----------------|-------------|-------------|
       B|-----3--3h5--3--3--|-------3h5------|-------5-----|-------5-----|
       G|---2----2----2--4--|-----4-----3----|-----5---5---|-----5---5---|
       D|-0-----------------|---4---------4--|---5-------5-|---5-------5-|x3
       A|-------------------|-2--------------|-3-----------|-3-----------|
       E|-------------------|----------------|-------------|-------------|#/4t2##/4t1#

#5t1#         Bm               C
#5t2#       e|----------------|--------------|-/5--3--2--|
       B|-------3h5------|-------5------|-/7--5--3--|
       G|-----4-----3----|-----5---5----|-----------|
       D|---4---------4--|---5-------5--|-----------|
       A|-2--------------|-3------------|-----------|
       E|----------------|--------------|-----------|#/5t2##/5t1#


REPEAT VERSE x 2


Chords played here: |Bm|G|D|D|   |Bm|G|D|A|   

#6t1##6t2#                    |Bm|G|D|D|   |Bm|C||-/5--3--2--|
                                       |-/7--5--3--|
                                       |-----------|
                                       |-----------|
                                       |-----------|
                                       |-----------|#/6t2##/6t1#

REPEAT VERSE


#7t1#Solo:                         Bm            G
#7t2#       e|---------------------12(14)-12(14)-12-10-12-10--|
       B|--------------10-12-----------------------------|
       G|-------7-9/11-----------------------------------|
       D|---7-9------------------------------------------|
       A|-9----------------------------------------------|
       E|------------------------------------------------|#/7t2##/7t1#

#8t1#          D                                 Bm                            G
#8t2#       e|----10-12(14)-12(14)-12-10-12----|-10(12)-10-7--------------------|
       B|-12---------------------------10-|-------------10-7---------------|
       G|---------------------------------|------------------9(11)(9)p7---7|
       D|---------------------------------|-----------------------------9--|
       A|---------------------------------|--------------------------------|
       E|---------------------------------|--------------------------------|#/8t2##/8t1#

#9t1#         D                      A              Bm
#9t2#       e|--------------------------------------10----10-10-10----10-10------
       B|--------------------------------10-12-10h12-12-12-10h12-12-12------
       G|---7-9-9(11)-9(11)-9-7-9----/11------------------------------------
       D|-7-----------------------------------------------------------------
       A|-------------------------------------------------------------------
       E|-------------------------------------------------------------------#/9t2##/9t1#

#10t1#          G                   D
#10t2#       e|----------|-------10----------------------------------------------|
       B|-12-10----|-10-12----10-12----10----------------------------------|
       G|-------12-|----------------11----9-11-7-9---7---------------------|
       D|----------|-------------------------------9---7-9---7-------------|
       A|----------|---------------------------------------9---7-9-5h7p5---|
       E|----------|-------------------------------------------------------|#/10t2##/10t1#


#11t1##11t2# e|-15(17)-15r13------15(17)-15r13---15-----13(14)-13(14)---------13-15(17)|
 B|---------------15---------------------------------------15--15----------|
 G|------------------------------------------------------------------------|
 D|------------------------------------------------------------------------|
 A|------------------------------------------------------------------------|
 E|------------------------------------------------------------------------|#/11t2##/11t1#


#12t1##12t2#       e|-r-13-13(14)------------------------------------------------------|
       B|--------------15--------------------------------------------------|
       G|------------------------------------------------------------------|
       D|-----------------12-----------------------------------------------|
       A|------------------------------------------------------------------|
       E|------------------------------------------------------------------|#/12t2##/12t1#



       Verse x1



There you go.   Thanx to Dane H for the end of the solo
Composición: N. Schon / S. PerryColaboración y revisión: