No Soy de Aquí Ni Soy de Allá

Jorge Cafrune

Cm
234
X35543
D7
123
XX0212
Gm
34
355333
Tono: G
[Riff]


                                  
E|--------------------------------
B|----------------3---4p3---------
G|--------------3------------3----
D|----------5---------------------
A|--------------------------------
E|------3-------------------------
     Gm
E|----3------------| 
B|----3------------| 
G|----3------------| 
D|5---5------------| 
A|----5------------| 
E|----3------------| 


Gm                         Cm
   Me gusta el Sol, Alicia y las 
palomas
                      Gm
El buen cigarro y las malas señoras
                    D7
Saltar paredes y abrir las ventanas
                    Gm
Y cuando lloro una mujer

                       Cm
Me gusta el vino tanto como las 
flores
Gm Y los conejos pero no los tractores D7 Y el pan cacero y la voz de Dolores Gm Y el mar mojandome los pies Cm No soy de aquí ni soy de allá Gm No tengo edad ni porvenir D7 Gm Y ser feliz es mi color de identidad Cm Me gusta estar tirado siempre en la arena Gm En mi matungo perseguir a Manuela D7 Por todo el tiempo para ver las estrellas Gm Con la María en el trigal Cm No soy de aquí ni soy de allá Gm No tengo edad ni porvenir D7 Gm Y ser feliz es mi color de identidad
Composición: Facundo CabralColaboración y revisión: caixa prego