Make It Right

Jonas Brothers

Am
123
X02210
C9
34
X35533
D
123
XX0232
Dsus
123
XX0232
G
123
320003
Tono: G

(intro)

E|-------------|-------------|----
B|------3------|------3------|----
G|----0---0----|----0---0----|----
D|-------------|-------------|----
A|-------------|--2----------|--3-
E|--3----------|-------------|----

E|--------------| 
B|--3-------3---| 
G|0---0---0---0-| 
D|--------------| 
A|--------------| 
E|--------------| 



E|-------------|-------------|----
B|------3------|------3------|----
G|----0---0----|----0---0----|----
D|-------------|-------------|----
A|-------------|--2----------|--3-
E|--3----------|-------------|----

E|--------3-----| 
B|--3-----3-----| 
G|0---0---0-----| 
D|--------------| 
A|--------3-----| 
E|--------------| 


G
They say you'll know
          C9
When you really find the one
G
But it's hard to tell
          C9
With the damage that's been done
G                                  
But I'd like to say that it's your 
C9
fault
But I know better
Am
'Cause I'm a fool to think
      C9
You'd wait around forever

(refrão)
      G              Dsus C9
Maybe I could have loved you
      G              Dsus C9
Maybe I could have shown
      G
That I still do care about you
              Dsus C9
More than you could know
              Am           C9
Don't say it's too late to try
              G
To make it right
C9               G C9
Oh, to make it right

G I didn't know C9 How good you were for me G Now it's clear C9 I'm seeing all that we could be G And I know that it's my fault C9 But I'm gonna treat you better Am 'Cause if I had one wish C9 You'd be with me forever (refrão) G Dsus C9 Maybe I could have loved you G Dsus C9 Maybe I could have shown G That I still do care about you Dsus C9 More than you could know Am C9 Don't say it's too late to try G To make it right C9 Is there something I could say? G Show me how to break it down C9 So before you walk away G Take the time to turn around D Listen to me now G Dsus C9 Maybe I could have loved you G Dsus C9 Maybe I could have shown G That I still do care about you Dsus C9 More than you could know Am C9 Don't say it's too late to try G Dsus C9 Maybe I could have loved you G Dsus C9 Maybe I could have shown G That I still do care about you Dsus C9 More than you could know Am C9 Don't say it's too late to try G C9 To make it right G C9 To make it right G C9 Make it right G C9 Gonna make it right
Composición: Jonas BrothersColaboración y revisión: Feranda Ferreira

Utilizamos cookies e outras tecnologias semelhantes para melhorar e personalizar sua experiência de uso. Ao navegar nos produtos, você concorda com as condições descritas em nossa Política de Privacidade.