Get the Funk Out

Extreme

Tono: G

take your time working through it.
I'm pretty sure it's all
correct.

=======================================================================

b = bend
r = release bend
T = right hand tap
h = hammer on or pull off
x = muted strings
~ = vibrato
pm= Palm Mute

Tuning:Eb Ab Db Gb Bb eb

=======================================================================
                            (Intro)


-|---|--------------15------15--| 
-|---|----------x-x-----x-x-----| 
-|---|----------x-x-----x-x-----| 
-|---|--------------------------| 
-|---|--------------------------| 
-|---|--------------------------| 





-----------------15------15--|----
-------x-x-x-x-x-----x-x-----|----
-------x-x-x-x-x-----x-x-----|----
-----------------------------|----
-----------------------------|----
-----------------------------|----

-|---------------15------15--| 
-|---x-x-x-x-x-x-----x-x-----| 
-|---x-x-x-x-x-x-----x-x-----| 
-|---------------------------| 
-|---------------------------| 
-|---------------------------| 


                          (verse 1)


-------------------------|-------
-------------------------|-------
----------x--------------|--3/5--
----------x--x-----------|--3/5--
-------------x-----------|-------
-------------x--10/0-1-3-|-------

-|----------------| 
-|----------------| 
-|3---------------| 
-|3-----------3-3-| 
-|----------------| 
-|----------------| 





---------------------------|------
---------------6----5------|------
--3/5--3-----5-5----5------|--3/5-
--3/5--3---5-5-------------|--3/5-
-----------------------0-0-|------
---------------------------|------

-|------------------| 
-|------------------| 
-|-3----------------| 
-|-3----------2-----| 
-|------------------| 
-|--------------3-0-| 





-----------------------------|--
-----------------------------|--
--3/5--3--------3/5---3------|--
-----------------------------|--
--1/3--1--0-----1/3---1--0-0-|--
------------3-0--------------|--

-|---------------------| 
-|---------------------| 
-|3/5--3---------------| 
-|3/5--3-----------3-3-| 
-|---------------------| 
-|---------------------| 





---------------------------|------
---------------6----5------|------
--3/5--3-----5-5----5------|--3-5-
--3/5--3---5-5-------------|--3-5-
-----------------------0-0-|------
---------------------------|------

-|------------------| 
-|------------------| 
-|-3----------------| 
-|-3----------2-----| 
-|------------------| 
-|--------------3-0-| 





-----------------------------|--
-----------------------------|--
--3/5--3--------3/5---3------|--
-----------------------------|--
--1/3--1--0-----1/3---1--0-0-|--
------------3-0--------------|--

-|---------------------| 
-|---------------------| 
-|3/5--3---------------| 
-|3/5--3-----------3-3-| 
-|---------------------| 
-|---------------------| 





---------------------------|------
---------------6----5------|------
--3/5--3-----5-5----5------|--3/5-
--3/5--3---5-5-------------|--3/5-
-----------------------0-0-|------
---------------------------|------

-|------------------| 
-|------------------| 
-|-3----------------| 
-|-3----------2-----| 
-|------------------| 
-|--------------3-0-| 




                              (pre-chorus)                       

-----------------------------|----
-----------------------------|----
--3/5--3--------3/5---3------|--3-
-----------------------------|--3-
--1/3--1--0-----1/3---1--0-0-|--1-
------------3-0--------------|----

-|-------------------| 
-|-------------------| 
-|-------------------| 
-|-------------3-----| 
-|---------------1/3-| 
-|-------------------| 





----------------------|-----------
---------------3------|--6--------
--5------------5------|--6--------
--5------------5------|--5--------
--3------------3------|--6--------
------------------0-0-|-----------

-|------8-----| 
-|------------| 
-|----6-------| 
-|------------| 
-|------------| 
-|--------0-0-| 



                             (chorus)

---------------------------|------
--8--------8-8-8-8---------|------
--8--------8-8-8-8---------|------
--7--------7-7-7-7---------|------
--8--------8-8-8-8---------|------
-------------------3h5-3p1-|--3---

-|------------------------| 
-|------------------------| 
-|------------------------| 
-|------------------------| 
-|------------------------| 
-|3--0-5/6-3-3-5-6-3~-0-0-| 



------------------------------|--
------------------------------|--
------------------------------|--
------------------------------|--
------------------------------|--
--3---3--0-5/6-3-3-5-6-3~-0-0-|--

-|----------------------------| 
-|----------------------------| 
-|------------------5---------| 
-|------5-5-------------------| 
-|3---3-----3p0-6h7---7---6h7-| 
-|----------------------------| 





-----------------------------|----
-----------------------------|----
--5---------5----------------|----
--------------8--8-7--5------|----
----8---6h7--------------5-7-|----
-----------------------------|--3-

-|--------------------------| 
-|--------------------------| 
-|--------------------------| 
-|--------------------------| 
-|--------------------------| 
-|--3--0-5/6-3-3-5-6-3~-0-0-| 





------------------------------|--
------------------------------|--
------------------------------|--
------------------------------|--
------------------------------|--
--3---3--0-5/6-3-3-5-6-3~-0-0-|--

-|----------------------------| 
-|----------------------------| 
-|------------------5---------| 
-|------5-5-------------------| 
-|3---3-----3h0-6h7---7---6h7-| 
-|----------------------------| 





--------------------------------|-
--------------------------------|-
-------------5------------------|-
--5------------8--8-7--5--------|-
----7/8--6-7--------------------|-
--------------------------10-12/|-

-|------------------| 
-|------------------| 
-|------------------| 
-|------------------| 
-|------------------| 
-|-----1------------| 





------------------------|---------
------------------------|---------
------------------------|--3/5--3-
--------x---------------|--3/5--3-
--------x-------------1-|---------
--------x----1/-10/-0---|---------

-|--------------| 
-|--------------| 
-|--------------| 
-|----------3-3-| 
-|--------------| 
-|--------------| 



 (verse 2)

---------------------------|------
---------------6----5------|------
--3/5--3-----5-5----5------|--3/5-
--3/5--3---5-5-------------|--3/5-
-----------------------0-0-|------
---------------------------|------

-|------------------| 
-|------------------| 
-|-3----------------| 
-|-3----------2-----| 
-|------------------| 
-|--------------3-0-| 



-----------------------------|--
-----------------------------|--
--3/5--3--------3/5---3------|--
-----------------------------|--
--1/3--1--0-----1/3---1--0-0-|--
------------3-0--------------|--

-|---------------------| 
-|---------------------| 
-|3/5--3---------------| 
-|3/5--3-----------3-3-| 
-|---------------------| 
-|---------------------| 




---------------------------|------ ---------------6----5------|------ --3/5--3-----5-5----5------|--3/5- --3/5--3---5-5-------------|--3/5- -----------------------0-0-|------ ---------------------------|------ -|------------------| -|------------------| -|-3----------------| -|-3----------2-----| -|------------------| -|--------------3-0-| -----------------------------|-- -----------------------------|-- --3/5--3--------3/5---3------|-- -----------------------------|-- --1/3--1--0-----1/3---1--0-0-|-- ------------3-0--------------|-- -|---------------------| -|---------------------| -|3/5--3---------------| -|3/5--3-----------3-3-| -|---------------------| -|---------------------| ---------------------------|------ ---------------6----5------|------ --3/5--3-----5-5----5------|--3/5- --3/5--3---5-5-------------|--3/5- -----------------------0-0-|------ ---------------------------|------ -|------------------| -|------------------| -|-3----------------| -|-3----------2-----| -|------------------| -|--------------3-0-| (pre-chorus) -----------------------------|---- -----------------------------|---- --3/5--3--------3/5---3------|---- -----------------------------|--3- --1/3--1--0-----1/3---1--0-0-|--5- ------------3-0--------------|--6- -|------------------| -|-----------3------| -|-----------3------| -|------------------| -|--------------2-3-| -|------------------| ----------------------|--6-------- --5-------------x-----|--6-------- --5-------------x-----|--6-------- --5-------------x-----|--5-------- --3-------------------|--6-------- ------------------0-0-|----------- -|-----------| -|----6------| -|----6------| -|-----------| -|-----------| -|-------0-0-| (chorus 2) ---------8-8--------------|------ --8------8-8--------------|------ --8-----------------------|------ --7----------7h5p3-5--5---|------ --8-----------------------|------ --------------------------|--3--- -|------------------------| -|------------------------| -|------------------------| -|------------------------| -|------------------------| -|3--0-5/6-3-3-5-6-3~-0-0-| ------------------------------|-- ------------------------------|-- ------------------------------|-- ------------------------------|-- ------------------------------|-- --3---3--0-5/6-3-3-5-6-3~-0-0-|-- -|----------------------------| -|----------------------------| -|------------------5---------| -|------5-5-------------------| -|3---3-----3h0-6h7---7---6h7-| -|----------------------------| ------------------------------|-- ------------------------------|-- --5----------5----------------|-- ---------------8--8-7--5------|-- ----7/8--6h7--------------5-7-|-- ------------------------------|-- -|----------------------------| -|----------------------------| -|----------------------------| -|----------------------------| -|----------------------------| -|3---3--0-5/6-3-3-5-6-3~-0-0-| ------------------------------|-- ------------------------------|-- ------------------------------|-- ------------------------------|-- ------------------------------|-- --3---3--0-5/6-3-3-5-6-3~-0-0-|-- -|----------------------------| -|----------------------------| -|------------------5---------| -|------5-5-------------------| -|3---3-----3h0-6h7---7---6h7-| -|----------------------------| --------------------------------|- --------------------------------|- --------------5-----------------|- --5-------------8-8-7--5--------|- ----7/8---6h7-------------------|- --------------------------10-12-|- -|-----------------------------| -|----------5/6-6-6-5/6-6------| -|----------3/4-4-4-3/4-4------| -|-------------------------0-0-| -|-----------------------------| -|-3---3--3--------------------| ------------------------------|-- -----------5/6-6-6-5/6-6~-----|-- -----------3/4-4-4-3/4-4~-----|-- --------------------------0-0-|-- ------------------------------|-- --3---3--3--------------------|-- -|-------------------------| -|5------------------------| -|3--------------5---------| -|5------------------------| -|3------3/5-6h7---7---6h7-| -|-------------------------| ------------------------------|-- ------------------------------|-- --5----------5----------------|-- ---------------8--8-7--5------|-- ----7/8--6h7--------------5-7/|-- ------------------------------|-- -|----------------------------| -|---------5/6-6-6-5/6-6~-----| -|---------3/4-4-4-3/4-4/-2p0-| -|----------------------------| -|----------------------------| -|3---3--3--------------------| ----------------------------|---- -----------5/6-6-6-5/6-6----|---- -----------3/4-4-4-3/4-4----|--5- ----------------------------|---- ----------------------------|---- --3---3--3------------------|---- -|---------------------------| -|---------------------------| -|3------3-------------------| -|--5-3----5-3----5-3------3-| -|-------------5------5-4----| -|---------------------------| (bridge) ------------------------------||-- ------------------------------||-- ------------------------------||*- ------------------------------||*- --5-4-3--5-4-3-1-1-3-1--------||-- -----------------------1---2--||-- -|---------------------------| -|---------------------------| -|--------------------3-4-5/-| -|------1--2--3--4--5--------| -|-1-3-----------------------| -|---------------------------| pm++++++++++++ ----------------------------|---- ----------------------------|---- ---------------------3-4-5/-|---- -------1--2--3--4--5--------|---- --1-3-----------------------|---- ----------------------------|--1- -|------------------------| -|------------------------| -|------------------------| -|-----------------3-4-5/-| -|---1--2--3--4--5--------| -|3-----------------------| pm+++++++++++++ pm+++++++++++++ --------------------------------|| --------------------------------|| -------------------------------*|| -------------------------------*|| -------1--2--3--3r-3p1-3-1------|| --1-3----------------------3-1--|| pm+++++++ ------------------------------- --18----18----18-----18-----18- --17b------17b---17b----17b---- ------------------------------- ------------------------------- ------------------------------- -|------------| -|------------| -|17r17p15----| -|---------17-| -|------------| -|------------| ---------------------------------- ---------------------------------- --15-17---x-17r17p15----15-------- ---------------------17-----17-15- ---------------------------------- ---------------------------------- -|15--------| -|---15-18r-| -|----------| -|----------| -|----------| -|----------| ----------15----------15---------- -------------18p15-------18p15---- -------------------18----------18- ---------------------------------- ---------------------------------- ---------------------------------- -|15----------| -|---18p15----| -|---------18-| -|------------| -|------------| -|------------| --15----------15----------15- -----18h15-------18h15------- -----------18----------18---- ----------------------------- ----------------------------- ----------------------------- -|---------15------------------------| -|18h15-------18h15------------------| -|------18----------18-17r17h15----3-| -|-----------------------------------| -|-----------------------------------| -|-----------------------------------| T T T T T T ------------------13h6p10-13h10p6- -----------11h3p6----------------- ----10h3p5------------------------ ---------------------------------- ---------------------------------- ---------------------------------- -|------------------------| -|------------------------| -|10-15h10p7--------------| -|-----------8-15h8p10----| -|------------------------| -|------------------------| T T T T T T T --------------------------15h8p12- ---------------------------------- -----------17h9p7-17h9p7---------- --17h10p12------------------------ ---------------------------------- ---------------------------------- -|15h12p8-------------------- -|--------------------------- -|-------12-17h12p9---------- -|------------------17h10p12- -|--------------------------- -|--------------------------- -|---------| -|---------| -|---------| -|17h10p12-| -|---------| -|---------| T T T T T T T ------------------18h11p15- ----------16h8p11---------- --15h8p10------------------ --------------------------- --------------------------- --------------------------- -|18h15p11---------------------------------| -|-----------------------------------------| -|---------15-20h15p12------------20h12p15-| -|---------------------13-17h13p15---------| -|-----------------------------------------| -|-----------------------------------------| T T T T T T T --------------------20h13h17- -----------18h10p13---------- --17h10p12------------------- ----------------------------- ----------------------------- ----------------------------- -|20h17p13------------------------- -|--------------------------------- -|---------17-21h17p14h------------ -|---------------------15-19h15p17- -|--------------------------------- -|--------------------------------- -------| -------| 22h14h-| -------| -------| -------| --18-18-18----18-18-18----18-18- -----------17----------17------- -------------------------------- -------------------------------- -------------------------------- -------------------------------- -|18----18-18-15h18p15----| -|---17----------------17-| -|------------------------| -|------------------------| -|------------------------| -|------------------------| --15-18-15-------15------------- -----------17-18----17-18-15-17- -------------------------------- -------------------------------- -------------------------------- -------------------------------- -|------------------| -|18-15----18-15----| -|------16-------16-| -|------------------| -|------------------| -|------------------| -------------------------------- -------------------------------- -----17----------17----------17- --17----17-17-16----16-16-15---- -------------------------------- -------------------------------- -|------------------| -|------------------| -|---------17-------| -|15-15-16----16-16-| -|------------------| -|------------------| ------------------------------ ---------------------------15- -----17----------17----17b---- --17----17-17-16----17-------- ------------------------------ ------------------------------ -|---------15----------------| -|18h15-------18h15----------| -|------18----------18h17p15-| -|---------------------------| -|---------------------------| -|---------------------------| ------------------------------- ------18-----18---------------- --17b----17b----17r17p15-17-15- ------------------------------- ------------------------------- ------------------------------- -|------------| -|------------| -|17b-15---15-| -|------------| -|------------| -|------------| -------------------------------- -----------------------------15- --17-15----15-18----15-17-18---- --------17-------17------------- -------------------------------- -------------------------------- -|---------15-16-17-| -|16-17-18----------| -|------------------| -|------------------| -|------------------| -|------------------| --18--18--18b-----18-19-20-20b---- -------------------------------11- ---------------------------------- ---------------------------------- ---------------------------------- ---------------------------------- -|---| -|11/| -|---| -|---| -|---| -|---| -----15-18----15-18-------18-15- --17-------18-------18-15------- -------------------------------- -------------------------------- -------------------------------- -------------------------------- -|------------------------------| -|18-15-------------------------| -|------18-17-15----15-17-17b17-| -|---------------17-------------| -|------------------------------| -|------------------------------| --------------------|----------- --------------------|----------- --15~---------------|----------- --------------------|----------- --------------------|----------- --------------------|--3---3--3- -|-------------------| -|5/6-6-6-5/6-6~-----| -|3/4-4-4-3/4-4~-----| -|---------------0-0-| -|-------------------| -|-------------------| ---------------------------|---- --5------------------------|---- --3--------------5---------|--5- --5------------------------|---- --3------3/5-6h7---7---6h7-|---- ---------------------------|---- -|--------------------------| -|--------------------------| -|---------5----------------| -|-----------8--8-7--5------| -|7/8--6h7--------------5-7/| -|--------------------------| (chorus) ------------------------------|-- -----------5/6-6-6-5/6-6------|-- -----------3/4-4-4-3/4-4/-2p0-|-- ------------------------------|-- ------------------------------|-- --3---3--3--------------------|-- -|--------------------------| -|---------5/6-6-6-5/6-6----| -|---------3/4-4-4-3/4-4----| -|--------------------------| -|--------------------------| -|3---3--3------------------| -------------------------x-17-- --x-17------------------------- --x-15-14-14-15/14-x-15--x-14-- ------------------------------- ------------------------------- ------------------------------- -|15/-----| -|----x-x-| -|12/-x-x-| -|--------| -|--------| -|--------| ------------------------------|-- ------------------------------|-- ------------------------------|-- ------------------------------|-- ------------------------------|-- --3---3--0-5/6-3-3-5-6-3~-0-0-|-- -|----------------------------| -|----------------------------| -|----------------------------| -|----------------------------| -|----------------------------| -|3---3--0-5/6-3-3-5-6-3~-0-0-| ------------------------------|-- ------------------------------|-- --------------------5---------|-- --------5-5-------------------|-- --3---3-----3p0-6h7---7---6h7-|-- ------------------------------|-- -|----------------------------| -|----------------------------| -|-----------5----------------| -|5------------8--8-7--5------| -|--7-8--6h7--------------5-7-| -|----------------------------| ------------------------------|-- -----------5/6-6-6-5/6-6~-----|-- -----------3/4-4-4-3/4-4~-----|-- --------------------------0-0-|-- ------------------------------|-- --3---3--3--------------------|-- -|----------------------------| -|---------5/6-6-6-5/6-6~-----| -|---------3/4-4-4-3/4-4~-----| -|------------------------0-0-| -|----------------------------| -|3---3--3--------------------| ---------------------------|------ --5------------------------|------ --3--------------5---------|--5--- --5------------------------|------ --3------3/5-6h7---7---6h7-|----7- ---------------------------|------ -|------------------------| -|------------------------| -|-------5----------------| -|---------8--8-7--5------| -|8--6h7--------------5-7/| -|------------------------| ------------------------------|-- -----------5/6-6-6-5/6-6~-----|-- -----------3/4-4-4-3/4-4/-2p0-|-- ------------------------------|-- ------------------------------|-- --3---3--3--------------------|-- -|--------------------------| -|---------5/6-6-6-5/6-6----| -|---------3/4-4-4-3/4-4----| -|--------------------------| -|--------------------------| -|3---3--3------------------| -------------------------------|-- -------------------------------|-- --5-3------3-------------------|-- ------5-3----5-3----5-3------3-|-- -----------------5------5-4----|-- -------------------------------|-- -|----------------------------| -|----------------------------| -|----------------------------| -|----------------------------| -|5-4-3--5-4-3-1-1-3-1--------| -|---------------------1---2--| ----------------------------|----- ----------------------------|----- ---------------------3-4-5/-|----- -------1--2--3--4--5--------|--5/- --1-3-----------------------|--5/- ----------------------------|--3/- pm+++++++++++++ -------------------------------|-- -------------------------------|-- --5-3------3-------------------|-- ------5-3----5-3----5-3------3-|-- -----------------5------5-4----|-- -------------------------------|-- -|----------------------------| -|----------------------------| -|----------------------------| -|----------------------------| -|5-4-3--5-4-3-1-1-3-1--------| -|---------------------1---2--| --15---------------------------- ------x-x-x-18--x-18--x--18----- ------x-x-x-15--x-15--x--15--17- -------------------------------- -------------------------------- -------------------------------- -|---| -|---| -|15-| -|---| -|---| -|---| --------------------------------- --18--x-x-x-18-----18--18----18-- --15--x-x-x-15--15-17--17p15-17-- --------------------------------- --------------------------------- --------------------------------- -|------| -|------| -|15----| -|---17-| -|------| -|------| ------------15------------------ --17--x-17---------20/---15----- --15--x-15---------------15--15- ---------------15--17/---------- -------------------------------- -------------------------------- -|---| -|---| -|15-| -|---| -|---| -|---|
Composición: Colaboración y revisión:

Utilizamos cookies e outras tecnologias semelhantes para melhorar e personalizar sua experiência de uso. Ao navegar nos produtos, você concorda com as condições descritas em nossa Política de Privacidade.