Somos Quem Podemos Ser

Engenheiros do Hawaii

Am7
12
X02010
Bm7
34
X24232
C7M
12
X3200X
C7M(9)
1234
X3243X
D4(7/9)
1
XX0010
G7M
1234
3X443X
Tono: G
[Intro] G7M  C7M
        G7M  C7M

[Violão 1] 2x

#1t1#   G7M
#1t2#E|-------2---2-------2----------------------|
B|-----3---3-------3---3--------------------|
G|---4-----------4-------4------------------|
D|------------------------------------------|
A|------------------------------------------|
E|-3-----------3----------------------------|#/1t2##/1t1#
   p i m a m a p i m a m i

#2t1#   C7M
#2t2#E|-------7---7-------7----------------------|
B|-----8---8-------8---8--------------------|
G|---9-----------9-------9------------------|
D|------------------------------------------|
A|------------------------------------------|
E|-8-----------8----------------------------|#/2t2##/2t1#
   p i m a m a p i m a m i

[Primeira Parte]

    G7M                              C7M
Um dia me disseram que as nuvens não eram de algodão
    G7M                                   C7M
Um dia me disseram que os ventos às vezes erram a direção
   G7M                           C7M
E tudo ficou tão claro, um intervalo na escuridão
        G7M                        C7M
Uma estrela de brilho raro, um disparo para um coração

[Segunda parte]

   Bm7                           C7M
A vida imita o vídeo, garotos inventam um novo inglês
   Bm7                         C7M
Vivendo num país sedento um momento de embriaguês


[Refrão]
 Am7                Bm7
Somos quem podemos ser
 Am7                Bm7  C7M
Sonhos que podemos ter

( G7M  C7M )
( G7M  C7M )

[Primeira parte]

    G7M                          C7M
Um dia me disseram quem eram os donos da situação
        G7M                            C7M
Sem querer eles me deram as chaves que abrem esta prisão
   G7M                             C7M
E tudo ficou tão claro, o que era raro ficou comum
         G7M                          C7M
Como um dia depois do outro, como um dia, um dia comum

[Segunda Parte]

   Bm7                           C7M
A vida imita o vídeo, garotos inventam um novo inglês
   Bm7                       C7M
Vivendo num país sedento um momento de embriaguês

[Refrão]

 Am7                Bm7
Somos quem podemos ser
 Am7                Bm7   C7M
Sonhos que podemos ter

[Solo] G7M  C7M  G7M  C7M
       Bm7  C7M  Bm7  C7M 
       Am7  Bm7 C7M  D4(7/9)

[Parte 1 de 3]

#3t1#   G7M              C7M
#3t2#E|---------2-2-1/2\----------7-7-6/7\-------|
B|-------3-----------------8----------------|
G|-----4-----------------9------------------|
D|-4/5--------------9/10--------------------|
A|------------------------------------------|
E|------------------------------------------|#/3t2##/3t1#
   p   i m a m i   p     i m a m i

[Parte 1 de 3]

#4t1#   G7M              C7M
#4t2#E|---------2-2-1/2\----------7-7-6/7\-------|
B|-------3-----------------8----------------|
G|-----4-----------------9------------------|
D|-4/5--------------9/10--------------------|
A|------------------------------------------|
E|------------------------------------------|#/4t2##/4t1#
   p   i m a m i   p     i m a m i

[Parte 2 de 3]

#5t1#       Bm7        C7M           Bm7
#5t2#E|-7-8-8/10~--7-8-10/12-10--7-8-8/10--------|
B|------------------------------------------|
G|------------------------------------------|
D|------------------------------------------|
A|------------------------------------------|
E|------------------------------------------|#/5t2##/5t1#

#6t1#       C7M      Am7           Bm7
#6t2#E|-7-8-8/12-10--10-8-7----------------------|
B|---------------------10-8-7-7/10----------|
G|------------------------------------------|
D|------------------------------------------|
A|------------------------------------------|
E|------------------------------------------|#/6t2##/6t1#

[Parte 3 de 3]

#7t1#   C7M      D4(7/9)              harm.
#7t2#E|-15-14-12---------------------------------|
B|----------15-13-12-15-13-12---------------|
G|----------------------------14------------|
D|-------------------------------12---------|
A|------------------------------------------|
E|------------------------------------------|#/7t2##/7t1#

[Terceira parte]

    G7M                              C7M
Um dia me disseram que as nuvens não eram de algodão
        G7M                            C7M
Sem querer eles me deram as chaves que abrem esta prisão

  Bm7                           C7M
Quem ocupa o trono tem culpa, quem oculta o crime, também
  Bm7                            C7M                       Bm7
Quem duvida da vida tem culpa, quem evita a dúvida também tem
   C7M      Bm7          C7M
uh uh       uh        uh uh

[Refrão]

 Am7                Bm7
Somos quem podemos ser
 Am7                Bm7   C7M   G7M
Sonhos que podemos ter

Outras Tabs

[Solo Intro - Violão 1]

#8t1#   G7M              C7M
#8t2#E|---------2-2-1/2\----------7-7-6/7\-------|
B|-------3-----------------8----------------|
G|-----4-----------------9------------------|
D|-4/5--------------9/10--------------------|
A|------------------------------------------|
E|------------------------------------------|#/8t2##/8t1#
   p   i m a m i    p    i m a m i

#9t1#[Dedilhado da primeira parte - Violão 2]

   G7M
#9t2#E|------------------------------------------|
B|-----0-----0-----0-----0------------------|
G|---0-----0-----0-----0--------------------|
D|-------4-----2-----0----------------------|
A|------------------------------------------|
E|-3----------------------------------------|#/9t2##/9t1#
   p i m p i m p i m p i m

#10t1#   C7M
#10t2#E|-------0----------------------------------|
B|-----0---0---------0-----0----------------|
G|---0-------0-----0-----0------------------|
D|-------------2h4-----2--------------------|
A|-3----------------------------------------|
E|------------------------------------------|#/10t2##/10t1#
   p i m a m i p   i m p i m

[Dedilhados da segunda parte]

[Violão 1] 2x

#11t1#   Bm7
#11t2#E|-------5---5-------5----------------------|
B|-----7---7-------7---7--------------------|
G|---7-----------7-------7------------------|
D|------------------------------------------|
A|------------------------------------------|
E|-7-----------7----------------------------|#/11t2##/11t1#
   p i m a m a p i m a m i

#12t1#   C7M
#12t2#E|-------7---7-------7----------------------|
B|-----8---8-------8---8--------------------|
G|---9-----------9-------9------------------|
D|------------------------------------------|
A|------------------------------------------|
E|-8-----------8----------------------------|#/12t2##/12t1#
   p i m a m a p i m a m i

[Violão 2] 2x

#13t1#   Bm7
#13t2#E|------------------------------------------|
B|-------3-----3-----3----------------------|
G|-----2---2-----2-----2--------------------|
D|---0-------0-----0-----0------------------|
A|-2----------------------------------------|
E|------------------------------------------|#/13t2##/13t1#
   p i m a m i a m i a m i

#14t1#   C7M(9)
#14t2#E|------------------------------------------|
B|-------3-----3-----3----------------------|
G|-----4---4-----4-----4--------------------|
D|---2-------2-----2-----2------------------|
A|-3----------------------------------------|
E|------------------------------------------|#/14t2##/14t1#
   p i m a m i a m i a m i

[Dedilhados do refrão]

[Violão 1]

#15t1#  Am7         Bm7         Am7         Bm7 C7M
#15t2#E|------3-----------5-----------3-----5---7-|
B|----5---5-------7---7-------5---5---7---8-|
G|--5-------5---7-------7---5-------5-7---9-|
D|------------------------------------------|
A|------------------------------------------|
E|5-----------7-----------5-----------7---8-|#/15t2##/15t1#
  p i m a m i

[Violão 2]

#16t1#   Am7         Bm7         Am7        Bm7 C7M
#16t2#E|-0-----------2-----------0----------2---3-|
B|-1-----------3-----------1----------3---5-|
G|-0-----------2-----------0----------2---4-|
D|-2-----------4-----------2----------4---5-|
A|-0-----------2-----------0----------2---3-|
E|------------------------------------------|#/16t2##/16t1#
Composición: Humberto GessingerColaboración y revisión: Getúlio VasconcelosLeonardo QueirozIuri GomesJulio Cesary más 2
videoclase Somos Quem Podemos Ser (aula de violão completa)