Tu No Sabes

Don Omar

A
123
X02220
B
234
X24442
D
123
XX0232
E
123
022100
G
123
320003
Tono: G
recommended Instrument: Piano

     Q    Q    Q.     S T T    Q    
Q    Q     Q       Q    Q    Q    S 
E.
E||-----------------------1-|--6---------4-----9----|--2---------2----2-4---|
B||---------------------2---|--7---------6-----9----|--4---------4----4-6---|
G||-------------------------|--6----3----6----10----|--4---------4----4-6---|
D||-------------------------|-------4----6----11----|--4----4----4----------|
A||-------------------------|-----------------11----|--2----2----2----------|
E||-------------------------|-----------------------|-----------------------|



  Q    Q    Q     Q       Q    Q    Q    E  E     Q    Q    Q     Q     

--2----2----4-----9----|--2-------
--2----2----6-----9----|--4----4--
--3----3----6----10----|--4----4--
--4---------6----11----|--4-------
-----------------11----|--2-------
-----------------------|----------

-|--7----6--4--|------------4-----9-
-|-------------|--7---------6-----9-
-|-------------|--6----3----6----10-
-|-------------|--8----4----6-------
-|-------------|--------------------
-|-------------|--------------------




  Q    Q    Q    S E.     Q    Q  
--2---------7----2-4---|----------
--4--------------4-6---|--2-------
--4---------4----4-6---|--3----3--
--4----4----4----------|--4----4--
--2----2----2----------|----------
-----------------------|----------
    Q     Q       E  E  Q    Q    S 
-|--4-----9----|--2----------7----2-
-|--6-----9----|--4---------------4-
-|--6----10----|--4----------4----4-
-|--6----11----|--4--4--4----4------
-|-------11----|--2--2--2----2------
-|-------------|-----2--------------
  E.   
-|4---| 
-|6---| 
-|6---| 
-|----| 
-|----| 
-|----| 



            ^ ^
  Q    E  S S Q    Q       Q    Q   
 S S S S E  E     Q    Q    Q     Q

------------6-4----4----|--2------
--2-------2---6----6----|--4------
--3----3------6----6----|--4----4-
--4----4-----------6----|--4----4-
------------------------|---------
------------------------|---------

-|---6---2-6-4--1--|--6---------4---
-|-----2-----------|--7---------6---
-|-----------------|--6----3----6---
-|-----------------|--8----4----6---
-|-----------------|----------------
-|---6-------4-----|----------------

-|--4----| 
-|--6----| 
-|--6----| 
-|--6----| 
-|-11----| 
-|-------| 




  Q    Q    Q    S E.     Q    S S
--2--------------2-4---|--6----6-
--4---------4----4-6---|--7------
--4---------4----4-6---|--6------
--4----4----4----------|--8------
--2----2----2----------|---------
-----------------------|---------
   E  Q    Q       Q    Q    Q    S 
-|----------4----|--2--------------2-4---| 
-|--7--6----6----|--4---------4----4-6---| 
-|6---------6----|--4---------4----4-6---| 
-|----------6----|--4----4----4----------| 
-|----------4----|--2----2----2----------| 
-|---------------|-----------------------| 




  Q    E.  T T Q    Q       Q    E
--6-----------------4----|--2----
--7------------6----6----|--4----
--6----6-----6------6----|--4----
--8----8---6--------6----|--4----
-------------------------|--2----
-------------------------|-------
  .  S S E  S E  E     Q    Q    Q  
-|-------------------|--2---------4-----4----| 
-|------4----6-7-----|--2---------6-----6----| 
-|----4---4-------4--|--3----3----6-----6----| 
-|4------------------|--4----4---------------| 
-|2------------------|--4--------------11----| 
-|-------------------|-----------------------| 




  Q    Q    S S S S E  E     Q    Q    Q    Q     

--2---------6---2-6-4--1--|--6----
--4-----------2-----------|--7----
--4----4------------------|--6----
--4----4------------------|--8----
--------------------------|-------
------------6-------4-----|-------

-|6----4----4----| 
-|7----6----6----| 
-|6----6----6----| 
-|8----6---------| 
-|---------------| 
-|---------------| 




  E  E  E   E  E   E  E   S S    Q    Q    Q     Q       Q    Q    Q    S S E   

--7---------------------------|--
--7---------------------------|--
--8------------8------8-------|--
--9-----8--11-----11-----11-6-|--
--9--9------------------------|--
------------------------------|--

-|----------4-----4----|--2---------
-|----------6-----6----|--4---------
-|-----3----6-----6----|--4---------
-|8----4----6-----6----|--4----4----
-|---------------11----|--2----2----
-|---------------------|------------

1----4-2-1--| 
2-----------| 
1-----------| 
------------| 
------------| 
------------| 




  Q    Q    Q     Q       Q    Q  
--2---------4-----9----|--2-------
--2---------6-----9----|--4-------
--3----3----6----10----|--4-------
--4----4----6----11----|--4----4--
-----------------11----|--2----2--
-----------------------|----------
    S  S. S. S  S. S.   Q    Q    Q 
-|----11-13-14-16-18-|--6---------4-
-|--4--4--6--7--9-11-|--2---------6-
-|--4----------------|--3----3----6-
-|--4----------------|--4----4----6-
-|-------------------|--------------
-|-------------------|--------------
      Q     
-|----9----| 
-|----9----| 
-|---10----| 
-|---11----| 
-|---11----| 
-|---------| 




  Q    Q    Q    S E.     Q    Q  
--2--------------2-4---|--6-------
--4---------4----4-6---|--2-------
--4---------4----4-6---|--3----3--
--4----4----4----------|--4----4--
--2----2----2----------|----------
-----------------------|----------
    Q    Q       Q    Q    Q    S E.
-|--4----4----|--2--------------2-4-
-|-------6----|--4---------4----4-6-
-|-------6----|--4---------4--------
-|-------6----|--4----4----4--------
-|------------|--2----2----2--------
-|------------|---------------------




  E.  S E.  S Q    Q       Q    Q 
--2-----6---4-4----4----|--2------
--2---2------------6----|--4------
--3----------------6----|--4----4-
--4----------------6----|--4----4-
------------------------|--2----2-
------------------------|---------
     Q    S E.     Q    E.  S Q    Q
-|--------2-4---|--2--------2-1----
-|---4----4-6---|--2---------------
-|---4----------|--3---------------
-|---4----------|--4---------------
-|---2----------|-------4----------
-|--------------|------------------
       
-|4----| 
-|6----| 
-|6----| 
-|6----| 
-|4----| 
-|-----| 



Q Q S S. S. S S. S. Q --2---------11-13-14-16-18-19-|-- --4----------4--6--7--9-11-12-|-- --4----4----------------------|-- --4----4----------------------|-- ------------------------------|-- ------------------------------|-- Q Q Q Q Q Q -|6---------4-----9----|--2--------- -|2---------6-----9----|--4--------- -|3----3----6----10----|--4--------- -|4----4----6----11----|--4----4---- -|---------------11----|--2----2---- -|---------------------|------------ 2----2-4---| 4----4-6---| 4----4-6---| 4----------| 2----------| -----------| Q Q H H Q Q E E E E E E E S S --2---------4--------|--L--------- --2---------6--------|--L--------- --3---------6--------|--L--------- --4----4----6--------|--L--------- -------4-------------|------------ ---------------------|------------ -|---------|--6--6--7--9--11--9--7-- -|---------|--7--------------------- -|---------|--6--------------------- -|---------|------------------------ -|---------|--9--------------------- -|---------|------------------------ -|4-6-| -|----| -|----| -|----| -|----| -|----| E E E E Q E S S Q --------2--6--4----4--1-2-|--L---- -----2--------------------|------- -------------------6------|------- -------------------6------|--4---- --1-----------------------|--2---- --------------------------|--2---- Q Q S E. -|----------------| -|-----4----4-6---| -|-----4----4-6---| -|4----4----------| -|2----2----------| -|2---------------| E S S E S S Q E S S Q --6--9-18-18--9-6-4----4--1-2-|-- --7--2-11-11--2--------6------|-- --6--------------------6------|-- --8---------------------------|-- ------------------------------|-- ------------------4-----------|-- Q Q S E. -|L--------------------| -|4----4----4----4-6---| -|4----4----4----4-6---| -|4----4----4----4-6---| -|-----2----2----------| -|---------------------| Q E. T T Q Q Q --6------------4-----4----|--2---- --2--------2-4-6-----6----|--4---- --3------------6-----6----|--4---- --4----4-------6-----6----|--4---- -------4------------11----|--2---- --------------------------|------- Q Q S E. Q E. T T Q -|-----2----2-4---|--6------------4- -|-----4----4-6---|--2--------2-4-6- -|-----4----4-6---|--3------------6- -|4----4----------|--4----4-------6- -|2----2----------|-------4--------- -|----------------|----------------- Q -|----4----| -|----6----| -|----6----| -|----6----| -|---11----| -|---------| Q Q Q S E. Q E --2---------2----2-4---|--6----6-- --4---------4----4-6---|--7----7-- --4---------4----4-6---|--6----6-- --4----4----4----------|--8----8-- --2----2----2----------|---------- -----------------------|---------- S S Q E. S Q Q S S S -|----4----4-----|-------2----6---2- -|--7-6----6---2-|--4----4------2--- -|6---6----6-----|--4----4---------- -|---------6-----|--4----4---------- -|---------------|------------------ -|---------------|------------6----- S E E -|6-4--1--| -|--------| -|--------| -|--------| -|--------| -|--4-----| Q Q Q Q Q Q --6---------4----4----|--2----2--- --7----7----6----6----|--4----4--- --6----6----6----6----|--4----4--- --8----8----6----6----|--4----4--- ----------------------|----------- ----------------------|----------- Q S E. Q S S E Q Q -|-2----2-4---|--6----6-----------4- -|-4----4-6---|--7--------7--6----6- -|-4----4-6---|--6------6----6----6- -|-4----4-6---|--8-----------6----6- -|------------|--------------------- -|------------|--------------------- Q Q Q S E. Q E --2----2----2----2-4---|--2------- --4----4----4----4-6---|--2----2-- --4----4----4----4-6---|--3------- --4----4----4----4-6---|--4------- -----------------------|---------- -----------------------|---------- E Q E E Q E E Q E -|6--4----------|----------4--1---- -|--------2--4--|--L----4---------- -|--------------|------------------ -|--------------|------------------ -|--------------|------------------ -|---4----------|--2--------------- E -|------| -|2--4--| -|------| -|------| -|------| -|------| Q E E Q E E Q E E Q Q Q E E E E Q -------2--6--4----------|--------- --L----2--7--6----2--4--|--L----4- ------------------3--4--|--------- ------------------------|--------- ------------------------|--------- --2---------------------|--2------ -|-4--1---------|--2---------------- -|---------2----|--4---------------- -|--------------|--4-------------3-- -|--------------|--4-------3--4----- -|--------------|-------6----------- -|--------------|------------------- -|-----| -|4----| -|-----| -|-----| -|-----| -|-----| > > Q H T T E. -------14--------18-23-30---|----- --6-------------------------|----- ----------------------------|----- ----------------------------|----- ----------------------------|----- ----------------------------|----- Duration Legend --------------- W - whole H - half Q - quarter E - 8th S - 16th T - 32nd X - 64th . - note dotted Tablature Legend ---------------- L - tied note x - dead note (n) - ghost note > - accentuded note NH - natural harmonic AH - artificial harmonic TH - tapped harmonic SH - semi harmonic PH - pitch harmonic h - hammer on p - pull off b - bend br - bendRelease pb - preBend pbr - preBendRelease brb - bendReleaseBend \n/ - tremolo bar dip \n - tremolo bar dive -/n - tremolo bar Release up /n\ - tremolo bar inverted dip /n - tremolo bar return -\n - tremolo bar Release down S - shift slide s - legato slide / - slide into from below or out of upwards \ - slide into from above or out of downwards ~ - vibrato W - wide vibrato tr - trill TP - tremolo picking T - tapping S - slap P - pop < - fade in ^ - brush up v - brush down
Composición: Colaboración y revisión: