Lugar Ao Sol

Charlie Brown Jr.

A5
X0P22XX
A7M
123
576XXX
A9
1234
577600
B5
134
X244XX
D5
1
X5P77XX
D7M
XX0P222
Dm7
1
X5P1010XX
E5
13
XX24XX
F#5
134
244XXX
F#m
3
XX4P222
F#m9
134
246XXX
F5
1
X8P1010XX
F5/E
12
033XXX
Tono: G
[Introdução] F#m  E5  D7M
             F#m  E5  D7M

#1t1#   F#m           E5
#1t2#E|------------------------------------------|
B|-----2-----------------------2------------|
G|---------2-4-------4-----2-4--------------|
D|-4-----4-------2-------2------------------|
A|------------------------------------------|
E|------------------------------------------|#/1t2##/1t1#

#2t1#   D7M
#2t2#E|-----2-----5---2---0-------0-2------------|
B|-------2-5-------------2------------------|
G|------------------------------------------|
D|-0----------------------------------------|
A|------------------------------------------|
E|------------------------------------------|#/2t2##/2t1#

#3t1#   F#m
#3t2#E|------------------------------------------|
B|-----2-----------------------2------------|
G|---------2-4-------4-----2-4--------------|
D|-4-----4-------2-------2------------------|
A|------------------------------------------|
E|------------------------------------------|#/3t2##/3t1#

#4t1#   D7M
#4t2#E|-2----------------------------------------|
B|-2----------------------------------------|
G|-2----------------------------------------|
D|-0----------------------------------------|
A|------------------------------------------|
E|------------------------------------------|#/4t2##/4t1#


[Primeira Parte]

#5t1#   F#m           E5
#5t2#E|------------------------------------------|
B|-----2-----------------------2------------|
G|---------2-4-------4-----2h4---6p4p2------|
D|-4-----4-------2-------2------------------|
A|-4-------------2--------------------------|
E|-2-------------0--------------------------|#/5t2##/5t1#

#6t1#   D7M
#6t2#E|-----2------------------------------------|
B|-----2-----5-5-5---2---5---2-2------------|
G|-----2-----2-2-2---2---2---2-2------------|
D|-0---------------0---0---0----------------|
A|------------------------------------------|
E|------------------------------------------|#/6t2##/6t1#

#7t1#   F#m           E5
#7t2#E|------------------------------------------|
B|-----2-----------------------2------------|
G|---------2-4-------4-----2h4---6p4p2------|
D|-4-----4-------2-------2------------------|
A|-4-------------2--------------------------|
E|-2-------------0--------------------------|#/7t2##/7t1#

#8t1#   D7M
#8t2#E|-----2-----2-2-2---2-2-2---2-2-2----------|
B|-----2-----2-2-2---2-2-2---2-2-2----------|
G|-----2-----2-2-2---2-2-2---2-2-2----------|
D|-0----------------------------------------|
A|------------------------------------------|
E|------------------------------------------|#/8t2##/8t1#

#9t1#   F#m           E5
#9t2#E|------------------------------------------|
B|-----2-----------------------2------------|
G|---------2-4-------4-----2h4---6p4p2------|
D|-4-----4-------2-------2------------------|
A|-4-------------2--------------------------|
E|-2-------------0--------------------------|#/9t2##/9t1#

#10t1#   D7M
#10t2#E|-----2------------------------------------|
B|-----2-----5-5-5---2---5---2-2------------|
G|-----2-----2-2-2---2---2---2-2------------|
D|-0---------------0---0---0----------------|
A|------------------------------------------|
E|------------------------------------------|#/10t2##/10t1#

#11t1#   F#m           E5
#11t2#E|------------------------------------------|
B|-----2-----------------------2------------|
G|---------2-4-------4-----2h4---6p4p2------|
D|-4-----4-------2-------2------------------|
A|-4-------------2--------------------------|
E|-2-------------0--------------------------|#/11t2##/11t1#

#12t1#   D7M
#12t2#E|-2-----2----------------------------------|
B|-2--------2-------------------------------|
G|-2----------2-----------------------------|
D|-0---0------------------------------------|
A|------------------------------------------|
E|------------------------------------------|#/12t2##/12t1#

F#m
    Que bom viver
        E5
Como é bom sonhar
           D7M
E o que ficou pra trás passou 
                  F#m
E eu não me importei
            E5
Foi até melhor
             D7M
Tive que pensar 

Em algo novo que fizesse sentido
       F#m
Ainda vejo o mundo 
             E5
Com os olhos    de criança
         D7M
Que só quer brincar 

E não tanta responsa
       F#m
Mas a vida cobra sério 
       E5                 D7M
E realmente não dá pra fugir


[Primeiro Refrão]

#13t1#   A7M       A9  
#13t2#E|---------------0--------------------------|
B|---------------0--------------------------|
G|---------------6--------------------------|
D|-6-6-6-6-6-7---7--------------------------|
A|-7-7-7-7-7-7------------------------------|
E|-5-5-5-5-5-5-5----------------------------|#/13t2##/13t1#

#14t1#   F#m9          D5
#14t2#E|------------------------------------------|
B|------------------------------------------|
G|---------------7-7-7-7-7-7-7--------------|
D|-6-6-6-6-6-6-6-7-7-7-7-7-7-7--------------|
A|-4-4-4-4-4-4-4-5-5-5-5-5-5-5-5h7----------|
E|-2-2-2-2-2-2-2----------------------------|#/14t2##/14t1#

#15t1#   A7M       A9  
#15t2#E|---------------0--------------------------|
B|---------------0--------------------------|
G|---------------6--------------------------|
D|-6-6-6-6-6-7---7--------------------------|
A|-7-7-7-7-7-7------------------------------|
E|-5-5-5-5-5-5-5----------------------------|#/15t2##/15t1#

#16t1#   D5            Dm7         F5/E  F5
#16t2#E|------------------------------------------|
B|------------------------------------------|
G|-7-7-7-7-7-7-7-10-10-10-10-10-10-10-10-10-|
D|-7-7-7-7-7-7-7-10-10-10-10-10-10-10-10-10-|
A|-5-5-5-5-5-5-5--5--5--5--5--7--7--8--8--8-|
E|------------------------------------------|#/16t2##/16t1#

 A7M             A9 
Livre pra poder sorrir, sim
 F#m9               D5
Livre pra poder buscar 
         A7M       A9  ( D5  Dm7  F5/E  F5 )
O meu lugar ao sol

#17t1#   A7M       A9  
#17t2#E|---------------0--------------------------|
B|---------------0--------------------------|
G|---------------6--------------------------|
D|-6-6-6-6-6-7---7--------------------------|
A|-7-7-7-7-7-7------------------------------|
E|-5-5-5-5-5-5-5----------------------------|#/17t2##/17t1#

#18t1#   F#m9          D5
#18t2#E|------------------------------------------|
B|------------------------------------------|
G|---------------7-7-7-7-7-7-7--------------|
D|-6-6-6-6-6-6-6-7-7-7-7-7-7-7--------------|
A|-4-4-4-4-4-4-4-5-5-5-5-5-5-5-5h7----------|
E|-2-2-2-2-2-2-2----------------------------|#/18t2##/18t1#

#19t1#   A7M       A9  
#19t2#E|---------------0--------------------------|
B|---------------0--------------------------|
G|---------------6--------------------------|
D|-6-6-6-6-6-7---7--------------------------|
A|-7-7-7-7-7-7------------------------------|
E|-5-5-5-5-5-5-5----------------------------|#/19t2##/19t1#

#20t1#   D5            Dm7         F5/E  F5
#20t2#E|------------------------------------------|
B|------------------------------------------|
G|-7-7-7-7-7-7-7-10-10-10-10-10-10-10-10-10-|
D|-7-7-7-7-7-7-7-10-10-10-10-10-10-10-10-10-|
A|-5-5-5-5-5-5-5--5--5--5--5--7--7--8--8--8-|
E|------------------------------------------|#/20t2##/20t1#

 A7M             A9
Livre pra poder sorrir, sim
 F#m9               D5
Livre pra poder buscar 
         A7M       A9  ( D5  Dm7  F5/E  F5 )       
O meu lugar ao sol


[Segunda Parte]

#21t1#   F#m           E5
#21t2#E|------------------------------------------|
B|-----2-----------------------2------------|
G|---------2-4-------4-----2h4---6p4p2------|
D|-4-----4-------2-------2------------------|
A|-4-------------2--------------------------|
E|-2-------------0--------------------------|#/21t2##/21t1#

#22t1#   D7M
#22t2#E|-----2------------------------------------|
B|-----2-----5-5-5---2---5---2-2------------|
G|-----2-----2-2-2---2---2---2-2------------|
D|-0---------------0---0---0----------------|
A|------------------------------------------|
E|------------------------------------------|#/22t2##/22t1#

#23t1#   F#m           E5
#23t2#E|------------------------------------------|
B|-----2-----------------------2------------|
G|---------2-4-------4-----2h4---6p4p2------|
D|-4-----4-------2-------2------------------|
A|-4-------------2--------------------------|
E|-2-------------0--------------------------|#/23t2##/23t1#

#24t1#   D7M
#24t2#E|-----2-----2-2-2---2-2-2---2-2-2----------|
B|-----2-----2-2-2---2-2-2---2-2-2----------|
G|-----2-----2-2-2---2-2-2---2-2-2----------|
D|-0----------------------------------------|
A|------------------------------------------|
E|------------------------------------------|#/24t2##/24t1#

#25t1#   F#m           E5
#25t2#E|------------------------------------------|
B|-----2-----------------------2------------|
G|---------2-4-------4-----2h4---6p4p2------|
D|-4-----4-------2-------2------------------|
A|-4-------------2--------------------------|
E|-2-------------0--------------------------|#/25t2##/25t1#

#26t1#   D7M
#26t2#E|-----2------------------------------------|
B|-----2-----5-5-5---2---5---2-2------------|
G|-----2-----2-2-2---2---2---2-2------------|
D|-0---------------0---0---0----------------|
A|------------------------------------------|
E|------------------------------------------|#/26t2##/26t1#

#27t1#   F#m           E5
#27t2#E|------------------------------------------|
B|-----2-----------------------2------------|
G|---------2-4-------4-----2h4---4----------|
D|-4-----4-------2-------2------------------|
A|-4-------------2--------------------------|
E|-2-------------0--------------------------|#/27t2##/27t1#

#28t1#   D7M
#28t2#E|-2-----2---------14-----------------------|
B|-2--------2------14-----------------------|
G|-2----------2----14-----------------------|
D|-0---0------------------------------------|
A|------------------------------------------|
E|------------------------------------------|#/28t2##/28t1#

F#m                      E5
    Um dia eu espero te reencontrar 
      D7M
Numa bem melhor

Cada um tem seu caminho
    F#m            E5
Eu sei foi até melhor
           D7M
Irmãos do mesmo Cristo

Eu quero e não desisto
      F#m
Caro Pai
                     E5
Como é bom ter por que se orgulhar
        D7M
A vida pode passar

Não estou sozinho
    F#m
Eu sei se eu tiver fé 
           E5         D7M 
Eu volto até a sonhar


[Segundo Refrão]

#29t1#   A7M       A9  
#29t2#E|---------------0--------------------------|
B|---------------0--------------------------|
G|---------------6--------------------------|
D|-6-6-6-6-6-7---7--------------------------|
A|-7-7-7-7-7-7------------------------------|
E|-5-5-5-5-5-5-5----------------------------|#/29t2##/29t1#

#30t1#   F#m9          D5
#30t2#E|------------------------------------------|
B|------------------------------------------|
G|---------------7-7-7-7-7-7-7--------------|
D|-6-6-6-6-6-6-6-7-7-7-7-7-7-7--------------|
A|-4-4-4-4-4-4-4-5-5-5-5-5-5-5-5h7----------|
E|-2-2-2-2-2-2-2----------------------------|#/30t2##/30t1#

#31t1#   A7M       A9  
#31t2#E|---------------0--------------------------|
B|---------------0--------------------------|
G|---------------6--------------------------|
D|-6-6-6-6-6-7---7--------------------------|
A|-7-7-7-7-7-7------------------------------|
E|-5-5-5-5-5-5-5----------------------------|#/31t2##/31t1#

#32t1#   D5            Dm7         F5/E  F5
#32t2#E|------------------------------------------|
B|------------------------------------------|
G|-7-7-7-7-7-7-7-10-10-10-10-10-10-10-10-10-|
D|-7-7-7-7-7-7-7-10-10-10-10-10-10-10-10-10-|
A|-5-5-5-5-5-5-5--5--5--5--5--7--7--8--8--8-|
E|------------------------------------------|#/32t2##/32t1#

 A7M             A9 
Livre pra poder sorrir, sim
 F#m9               D5
Livre pra poder buscar 
         A7M       A9  ( D5  Dm7  F5/E  F5 )
O meu lugar ao sol

#33t1#   A7M       A9  
#33t2#E|---------------0--------------------------|
B|---------------0--------------------------|
G|---------------6--------------------------|
D|-6-6-6-6-6-7---7--------------------------|
A|-7-7-7-7-7-7------------------------------|
E|-5-5-5-5-5-5-5----------------------------|#/33t2##/33t1#

#34t1#   F#m9          D5
#34t2#E|------------------------------------------|
B|------------------------------------------|
G|---------------7-7-7-7-7-7-7--------------|
D|-6-6-6-6-6-6-6-7-7-7-7-7-7-7--------------|
A|-4-4-4-4-4-4-4-5-5-5-5-5-5-5-5h7----------|
E|-2-2-2-2-2-2-2----------------------------|#/34t2##/34t1#

#35t1#   A7M       A9  
#35t2#E|---------------0--------------------------|
B|---------------0--------------------------|
G|---------------6--------------------------|
D|-6-6-6-6-6-7---7--------------------------|
A|-7-7-7-7-7-7------------------------------|
E|-5-5-5-5-5-5-5----------------------------|#/35t2##/35t1#

#36t1#   D5            Dm7         F5/E  F5
#36t2#E|------------------------------------------|
B|------------------------------------------|
G|-7-7-7-7-7-7-7-10-10-10-10-10-10-10-10-10-|
D|-7-7-7-7-7-7-7-10-10-10-10-10-10-10-10-10-|
A|-5-5-5-5-5-5-5--5--5--5--5--7--7--8--8--8-|
E|------------------------------------------|#/36t2##/36t1#

 A7M             A9
Livre pra poder sorrir, sim
 F#m9               D5
Livre pra poder buscar 
         A7M       A9  ( D5  Dm7  F5/E  F5 )       
O meu lugar ao sol


[Terceira Parte]

#37t1#   F#m           E5
#37t2#E|------------------------------------------|
B|-----2-----------------------2------------|
G|---------2-4-------4-----2h4---6p4p2------|
D|-4-----4-------2-------2------------------|
A|-4-------------2--------------------------|
E|-2-------------0--------------------------|#/37t2##/37t1#

#38t1#   D7M
#38t2#E|-----2------------------------------------|
B|-----2-----5-5-5---2---5---2-2------------|
G|-----2-----2-2-2---2---2---2-2------------|
D|-0---------------0---0---0----------------|
A|------------------------------------------|
E|------------------------------------------|#/38t2##/38t1#

#39t1#   F#m           E5
#39t2#E|------------------------------------------|
B|-----2-----------------------2------------|
G|---------2-4-------4-----2h4---6p4p2------|
D|-4-----4-------2-------2------------------|
A|-4-------------2--------------------------|
E|-2-------------0--------------------------|#/39t2##/39t1#

#40t1#   D7M
#40t2#E|-----2-----2-2-2---2-2-2---2-2-2----------|
B|-----2-----2-2-2---2-2-2---2-2-2----------|
G|-----2-----2-2-2---2-2-2---2-2-2----------|
D|-0----------------------------------------|
A|------------------------------------------|
E|------------------------------------------|#/40t2##/40t1#

#41t1#   F#m           E5
#41t2#E|------------------------------------------|
B|-----2-----------------------2------------|
G|---------2-4-------4-----2h4---6p4p2------|
D|-4-----4-------2-------2------------------|
A|-4-------------2--------------------------|
E|-2-------------0--------------------------|#/41t2##/41t1#

#42t1#   D7M
#42t2#E|-----2------------------------------------|
B|-----2-----5-5-5---2---5---2-2------------|
G|-----2-----2-2-2---2---2---2-2------------|
D|-0---------------0---0---0----------------|
A|------------------------------------------|
E|------------------------------------------|#/42t2##/42t1#

#43t1#   F#m           E5
#43t2#E|------------------------------------------|
B|-----2-----------------------2------------|
G|---------2-4-------4-----2-4---4----------|
D|-4-----4-------2-------2------------------|
A|------------------------------------------|
E|------------------------------------------|#/43t2##/43t1#

#44t1#   D7M
#44t2#E|-2----------------------------------------|
B|-2----------------------------------------|
G|-2----------------------------------------|
D|-0----------------------------------------|
A|------------------------------------------|
E|------------------------------------------|#/44t2##/44t1#

    F#m     E5
O amor é assim
     D7M
É a paz de Deus em sua casa
    F#m     E5
O amor é assim 
     D7M
É a paz de Deus que nunca acaba
    F#m     E5
O amor é assim
     D7M
É a paz de Deus em sua casa
    F#m     E5
O amor é assim
     D7M
É a paz de Deus que nunca acaba


[Ponte] B5  ( A5  B5 ) D5
        B5  ( A5  B5 ) D5
        ( B5  A5  B5 ) ( A5  B5 ) D5
        F#m  ( F#5  F5  E5 ) 

#45t1#Guitarra Base
#45t2#E|------------------------------------------|
B|------------------------------------------|
G|-4---4---4-2-4-7---7-7---7-7-7-7----------|
D|-4---4---4-2-4-7---7-7---7-7-7-7----------|
A|-2---2---2-0-2-5---5-5---5-5-5-5----------|
E|------------------------------------------|
   ↓   ↓   ↓ ↑ ↓ ↑   ↑ ↓   ↓ ↑ ↓ ↑#/45t2##/45t1#

#46t1##46t2#E|------------------------------------------|
B|------------------------------------------|
G|-4---4---4-2-4-7---7-7---7-7-7-7----------|
D|-4---4---4-2-4-7---7-7---7-7-7-7----------|
A|-2---2---2-0-2-5---5-5---5-5-5-5----------|
E|------------------------------------------|
   ↓   ↓   ↓ ↑ ↓ ↑   ↑ ↓   ↓ ↑ ↓ ↑#/46t2##/46t1#

#47t1##47t2#E|------------------------------------------|
B|------------------------------------------|
G|-4-2-4---4-2-4-7---7-7---7-7-7-7----------|
D|-4-2-4---4-2-4-7---7-7---7-7-7-7----------|
A|-2-0-2---2-0-2-5---5-5---5-5-5-5----------|
E|------------------------------------------|
   ↓ ↑ ↓   ↓ ↑ ↓ ↑   ↑ ↓   ↓ ↑ ↓ ↑#/47t2##/47t1#


#48t1##48t2#E|-----2------------------------------------|
B|-----2------------------------------------|
G|-----2------------------------------------|
D|-4---4-4-4-4-3-2---2-2-2---2-2-2----------|
A|-4-----4-4-4-3-2---2-2-2---2-2-2----------|
E|-2-----2-2-2-1-0---0-0-0---0-0-0----------|
   ↓   ↓ ↑ ↓ ↑ ↓ ↑   ↑ ↓ ↑   ↑ ↓ ↑#/48t2##/48t1#


#49t1#Guitarra Solo
#49t2#E|-7---7---7-5-5---------------------------------------|
B|---------------7---7-7-7---7-7-7---------------------|
G|-4---4---4-2-2---------------------------------------|
D|---------------4---4-4-4---4-4-4---------------------|
A|-----------------------------------------------------|
E|-----------------------------------------------------|
   ↓   ↓   ↓ ↑ ↓ ↑   ↑ ↓ ↑   ↑ ↓ ↑#/49t2##/49t1#

#50t1##50t2#E|-7---7---7-5-5---------------------------------------|
B|---------------7---7-7-7---7-7-7---------------------|
G|-4---4---4-2-2---------------------------------------|
D|---------------4---4-4-4---4-4-4---------------------|
A|-----------------------------------------------------|
E|-----------------------------------------------------|
   ↓   ↓   ↓ ↑ ↓ ↑   ↑ ↓ ↑   ↑ ↓ ↑#/50t2##/50t1#

#51t1##51t2#E|-7-7-7---7-7-7/9-7---5-------------------------------|
B|-------------------------7---7-7-7-7---7-7-7-7-6-5---|
G|-4-4-4---4-4-4/6-4---2-------------------------------|
D|-------------------------4---4-4-4-4---4-4-4-4-3-2---|
A|-----------------------------------------------------|
E|-----------------------------------------------------|
   ↓ ↑ ↓   ↓ ↑ ↓   ↑   ↑   ↑   ↑ ↓ ↑ ↓   ↓ ↑ ↓ ↑ ↓ ↑#/51t2##/51t1#

#52t1##52t2#E|-5---7---5-7/----------------------------------------|
B|-----------------------------------------------------|
G|-2---4---2-4/----------------------------------------|
D|-----------------------------------------------------|
A|-----------------------------------------------------|
E|-----------------------------------------------------|
   ↑   ↑   ↑ ↓#/52t2##/52t1#


[Solo] F#m  E5  D7M
       F#m  E5  D7M

#53t1#Guitarra Solo
#53t2#E|-9---9-9-9-9-9-12---9---12---9-12\9------------------|
B|-----------------------------------------------------|
G|-6---6-6-6-6-6--9---6----9---6--9\6------------------|
D|-----------------------------------------------------|
A|-----------------------------------------------------|
E|-----------------------------------------------------|
   ↓   ↓ ↑ ↓ ↑ ↓  ↑   ↑    ↑   ↑  ↓#/53t2##/53t1#

#54t1##54t2#E|-14---14---14-14-14-14---14-14-14---14-14------------|
B|-----------------------------------------------------|
G|-11---11---11-11-11-11---11-11-11---11-11------------|
D|-----------------------------------------------------|
A|-----------------------------------------------------|
E|-----------------------------------------------------|
    ↓    ↓    ↓  ↑  ↓  ↑    ↑  ↓  ↑    ↑  ↓#/54t2##/54t1#

#55t1##55t2#E|-12-12-12---12---12-12-12-9---7---5---7-7-7/9--------|
B|-----------------------------------------------------|
G|--9--9--9----9----9--9--9-6---4---2---4-4-4/6--------|
D|-----------------------------------------------------|
A|-----------------------------------------------------|
E|-----------------------------------------------------|
    ↓  ↑  ↓    ↓    ↓  ↑  ↓ ↑   ↑   ↑   ↑ ↓ ↓#/55t2##/55t1#

#56t1##56t2#E|-5---5-5-5-5-5-5-5-5-5-5-5-5-5-----------------------|
B|-----------------------------------------------------|
G|-2---2-2-2-2-2-2-2-2-2-2-2-2-2-----------------------|
D|-----------------------------------------------------|
A|-----------------------------------------------------|
E|-----------------------------------------------------|
   ↓   ↓ ↓ ↓ ↓ ↓ ↓ ↓ ↓ ↓ ↓ ↓ ↓ ↓ #/56t2##/56t1#


[Final]

#57t1#   F#m           E5
#57t2#E|------------------------------------------|
B|-----2-----------------------2------------|
G|---------2-4-------4-----2h4---6p4p2------|
D|-4-----4-------2-------2------------------|
A|-4-------------2--------------------------|
E|-2-------------0--------------------------|#/57t2##/57t1#

#58t1#   D7M
#58t2#E|-----2------------------------------------|
B|-----2-----5-5-5---2---5---2-2------------|
G|-----2-----2-2-2---2---2---2-2------------|
D|-0---------------0---0---0----------------|
A|------------------------------------------|
E|------------------------------------------|#/58t2##/58t1#

#59t1#   F#m           E5
#59t2#E|------------------------------------------|
B|-----2-----------------------2------------|
G|---------2-4-------4-----2h4---6p4p2------|
D|-4-----4-------2-------2------------------|
A|-4-------------2--------------------------|
E|-2-------------0--------------------------|#/59t2##/59t1#

#60t1#   D7M
#60t2#E|-----2-----2-2-2---2-2-2---2-2-2----------|
B|-----2-----2-2-2---2-2-2---2-2-2----------|
G|-----2-----2-2-2---2-2-2---2-2-2----------|
D|-0----------------------------------------|
A|------------------------------------------|
E|------------------------------------------|#/60t2##/60t1#

#61t1#   F#m           E5
#61t2#E|------------------------------------------|
B|-----2-----------------------2------------|
G|---------2-4-------4-----2h4---6p4p2------|
D|-4-----4-------2-------2------------------|
A|-4-------------2--------------------------|
E|-2-------------0--------------------------|#/61t2##/61t1#

#62t1#   D7M
#62t2#E|-----2------------------------------------|
B|-----2-----5-5-5---2---5---2-2------------|
G|-----2-----2-2-2---2---2---2-2------------|
D|-0---------------0---0---0----------------|
A|------------------------------------------|
E|------------------------------------------|#/62t2##/62t1#

#63t1#   F#m           E5
#63t2#E|------------------------------------------|
B|-----2-----------------------2------------|
G|---------2-4-------4-----2h4--------------|
D|-4-----4-------2-------2------------------|
A|------------------------------------------|
E|------------------------------------------|#/63t2##/63t1#

#64t1#   D7M
#64t2#E|-2----------------------------------------|
B|-2----------------------------------------|
G|-2----------------------------------------|
D|-0----------------------------------------|
A|------------------------------------------|
E|------------------------------------------|#/64t2##/64t1#

        F#m
Nossas vidas, nossos sonhos 
      E5          D7M
Têm o    mesmo valor
        F#m
Nossas vidas, nossos sonhos 
      E5
Têm o    mesmo valor
    D7M                           F#m
Eu vou com você pra onde você for
                    E5
Eu descobri que é azul 
            D7M                 F#m
A cor da parede da casa de Deus
               E5                    D7M
E não há mais ninguém como você e eu
Composición: ChorãoColaboración y revisión: Vinícius DiasYan SantosNatã schrammAlison Souzay más 7
videoclase LUGAR AO SOL (aula de guitarra)