Sonda-me Usa-me

Aline Barros

Am
123
X02210
Am7/G
123
302010
C
123
X32010
C/E
123
032010
C4
134
X3301X
Dm
123
XX0231
Em
12
022000
Em7
123
022030
F
234
133211
F/A
1234
5X356X
F9
234
135211
G
123
320003
G/B
123
X20033
G/F
13
1XX003
Tono: G
[Intro] C  G/B  F9  G  Em
        Am  Am7/G  F9  G/B  C4  C


   C            G/B          F9  
E|-------------------------------
B|-------1------------3----------
G|-----0---0--------0---0------2-
D|---2-------2----0-------0--3---
A|-3------------2----------------
E|-------------------------------

E|--3--------| 
B|1---1------| 
G|------2----| 
D|-----------| 
A|-----------| 
E|-----------| 



   G            Em
E|--------------------------------
B|-------3------------0-----------
G|-----0---0--------0---0---------
D|---0-------0----2-------2-------
A|--------------------------------
E|-3------------0-----------------



   Am     Am7/G  F9         G/B    
E|---------------------3----------
B|-------------------1---1--------
G|-----2------0----2------------0-
D|---2------2----3------------0---
A|-0------------------------2-----
E|--------3-----------------------
  C4 C
E|----0-----| 
B|-1--1-----| 
G|-0--0-----| 
D|-3--2-----| 
A|-3--3-----| 
E|----------| 


[Primeira Parte]


   C            G/B          Am  
E|-------------------------------
B|-------1------------3----------
G|-----0---0--------0---0--------
D|---2-------2----0-------0----2-
A|-3------------2------------0---
E|-------------------------------

E|-----------| 
B|--1--------| 
G|2---2------| 
D|------2----| 
A|-----------| 
E|-----------| 



   Am7/G        F9           C/E
E|--------------------3----------
B|-------1----------1---1--------
G|-----0---0------2-------2----0-
D|---2-------2--3------------2---
A|-------------------------------
E|-3-----------------------------

E|--3--------| 
B|1---1------| 
G|------0----| 
D|-----------| 
A|-----------| 
E|-----------| 



   Dm
E|-------1------------------------
B|-----3---3---3-1-0--------------
G|---2---------------0---0--------
D|-0-------------------0----------
A|-----------0-----2--------------
E|--------------------------------


 C           G/B   Am      Am7/G
Sonda-me Senhor e me conhece
  F9         C/E     Dm
Quebranta o meu coração
      C           G/B     Am      
Transforma-me conforme a Tua 
 Am7/G
palavra

[Pré-Refrão]

F9 G/F Em7 E|-------3------------3---------- B|-----1---1--------3---3-------- G|---2-------2----4-------4----0- D|-3------------3------------2--- A|------------------------------- E|------------------------------- E|--3--------| B|3---3------| G|------0----| D|-----------| A|-----------| E|-----------| Am Am7/G F9 E|---------------------3--------- B|-------------------1---1------- G|-----2------0----2-------2---2- D|---2------2----3-----------3--- A|-0----------------------------- E|--------3---------------------- E|--3--------| B|1---1------| G|------2----| D|-----------| A|-----------| E|-----------| G E|-------------------------------- B|-------3-----------3------------ G|-----0---0-------0---0---------- D|---0-------0---0-------0-------- A|-------------------------------- E|-3-----------3------------------ F/A E|-------------------------------- B|-------1-----------1------------ G|-----2---2-------2---2---------- D|---3-------3---3-------3-------- A|-0-----------0------------------ E|-------------------------------- G/B E|-------------------------------- B|-------------------------------- G|-------------------------------- D|---0---------------------------- A|-2------------------------------ E|-------------------------------- F9 G/F Em7 E enche-me até que em mim se ache Am só a Ti Am7/G F9 G F/A En____tão... usa-me Senhor G/B Usa-me [Refrão] C G/B Como farol que brilha a noite Am Am7/G Como ponte sobre as águas F9 C/E Como abrigo no deserto F/A G/B Como flecha que acerta o alvo C G/B Am Eu quero ser usado da maneira que Am7/G Te agrade F9 C/E Em qualquer hora e em qualquer lugar F9 G Eis aqui a minha vida Am Usa-me, Senhor F G Usa-me [Parte Final] C Am Sonda-me, quebranta-me, F9 transforma-me Dm F9 G Enche-me e usa-me C Am Sonda-me, quebranta-me, F9 transforma-me Dm F9 G Enche-me e usa-me Senhor
Composición: Aline Barros / Ana Feitosa / Edson FeitosaColaboración y revisión: Thiago AlmeidaLucas SoutoCarolina VieiraJosé Soaresy más 9
videoclase Sonda-me, Usa-me (aula de violão)

Utilizamos cookies e outras tecnologias semelhantes para melhorar e personalizar sua experiência de uso. Ao navegar nos produtos, você concorda com as condições descritas em nossa Política de Privacidade.