Roundabout

Yes

C/E
123
032010
E
123
022100
F
234
133211
G
123
320003
Tono: G
[Intro]

#1t1##1t2#E|---------------12(H)----7--5h7p5-------5--------------|
B|-------------12(H)----------------8-7-----------------|
G|-----------12(H)--------------------------------------|
D|------------------------------------------------------|
A|------------------------------------------------------|
E|--12(H)-----------------------------------------------|#/1t2##/1t1#

#2t1##2t2#E|---------------12(H)----7--5h7p5----------------------|
B|-------------12(H)----------------8-7-----------------|
G|-----------12(H)-----------------------4/7------------|
D|---------------------------------------------4/7------|
A|----------------------------------------------------3-|
E|--12(H)-----------------------------------------------|#/2t2##/2t1#

#3t1##3t2#E|---------------12(H)----7--5h7p5-------5--------------|
B|-------------12(H)----------------8-7-----7-----------|
G|-----------12(H)--------------------------------------|
D|------------------------------------------------------|
A|------------------------------------------------------|
E|--12(H)-----------------------------------------------|#/3t2##/3t1#

#4t1##4t2#E|--2-3-2h3p2-----0--------------------------------------------|
B|-------------3-----3-1-0-3---1---0---------------------------|
G|---------------------------4---2---0--2------2--4--2--4--2---|
D|--0--------------------------------------2---4--5--4--5--4--2|
A|----------------3--------2---0-----------2---4--5--4--5--4--2|
E|---------------------------------3----2--0------------------0|#/4t2##/4t1#

#5t1# ...Spend the day your way
#5t2#E|-------------------------------------------------------------|
B|-------------------------------------------------------------|
G|-------------------------------------------------------------|
D|2--2--4--5--4--5--4--2--2----2--2-4---5-4-2------------------|
A|2--2--4--5--4--5--4--2--2----2--2-4---5-4-2------------------|
E|0--0--2--3--2--3--2--0--0------------------------------------|#/5t2##/5t1#

[Ponte]

           Bm              F#m5+/A (Dica:Finja que é um Bm com a pestana até o D)
Call it morning driving through the sound and

E              G
In and out the valley

[Refrão]

#6t1#         G   C/E F C/E F C/E G
#6t2#E|-----------------------------|
B|--3-3-5--6--5--6--5--3-3-3-3-|
G|--4-4-5--5--5--5--5--4-4-4-4-|
D|--5-5-5--7--5--7--5--5-5-5-5-| (6x)
A|---------8--7--8--7----------|
E|-----------------------------|#/6t2##/6t1#

#7t1##7t2#E|--------------------------------------------------------------------------|
B|--------------------------------------------------------------------------|
G|---4h5h7---------4h5h7---------4h5h7----------4h5h7---------4h5h7---------|
D|---------4h5h7---------4h5h7----------4h5h7---------4h5h7---------4h5h7---|
A|---------------3----------------------------------------------------------|
E|-----------------------------7-------------5--------------3-------------2-|#/7t2##/7t1#
Composición: Jon Anderson / Steve HoweColaboración y revisión: kirikito-senseiPaulo RodriguesJoão PortoJoão Valtrigy más 1