Hold on

Yes

A
123
X02220
A5
12
X022XX
A7
12
X02020
Am7
12
X02010
B5
134
X244XX
Bb5
134
X133XX
C5
134
X355XX
D#5
134
X688XX
D5
134
X577XX
E5
12
022XXX
F
234
133211
F5
134
133XXX
Tono: F
Essa é versão é uma mistura criada 
por mim do que é tocado no 9012live 
e no estúdio
Não use os acordes pesados na sexta 
corda.


solo 1

e---------5b-------5-----------
b-------6-------------8-6-5-6--
g----7-------------------------
d------------------------------
a------------------------------
e------------------------------

e|------------------------------------
b|8b/0--------------------------------
g|-------------5------------6/7-5-5---
d|-----------9---9----5-------------5-
a|----------------------8-5-----------
e|------------------------------------

-----------------0-1-13| 
------8-\6---6\3-------| 
-----------7-----------| 
---5/7-----------------| 
8----------------------| 
-----------------------| 



solo 2 ( taca um wah - wah  que melhora )

e------------------------------
b------------------------------
g------------------------------
d----------5-----7\0------7----
a----8--5----8-------5-8---8---
e------8-----------------------

e|-------------------| 
b|-------------------| 
g|-------------------| 
d|5\0---5---------5-7| 
a|---------8---8-----| 
e|-------------------| 




sequência 1

e-----------------------| 
b-3/5-5-5-5-5-----------| 
g-----------------8\6-6-| 
d-----------------------| 
a-----------------------| 
e-----------------------| 



lick 1

e---------8\0----------| 
b---5-6----------------| 
g----------------------| 
d----------------------| 
a----------------------| 
e----------------------| 


lick 2

e--------------------------| 
b--------------------------| 
g--------------------------| 
d--------------------------| 
a---8-8-7------------------| 
e--------------8-7-3-------| 



lick 3

e------------------------| 
b-8-6-8-6----------------| 
g-----------7-5/7-5------| 
d---------------------7--| 
a------------------------| 
e------------------------| 



lick 4

e------------------------| 
b------------------------| 


g—--0/2------------------|

d------------------------| 
a------------------------| 
e------------------------| 
   --4x--                  



lick 5

e--------------------------| 
b-----------6--------------| 
g------5-7----5------------| 
d----7-----------8---------| 
a--8-----------------------| 
e--------------------------| 



seqüência 2

e---8----6-----------------| 
b-----6--------------------| 
g------------8-------------| 
d--------------------------| 
a--------------------------| 
e--------------------------| 


seqüência 3

e---8----6----------------------| 
b------6------------------------| 
g------------8------5-7-8-7v----| 
d--------------8-8--------------| 
a-------------------------------| 
e-------------------------------| 

lick 6
e—6/8-----9/10------------------|

b-------6-----------------------| 
g------------------12------5-7v-| 
d----------------------8-8------| 
a-------------------------------| 
e-------------------------------| 


lick 7

e------6/8-6---------------| 
b----6---------------------| 
g--8-----------------------| 
d--------------------------| 
a--------------------------| 
e--------------------------| 


lick 8

e-------------------------| 
b-------6-----------------| 
g--5-7----5/7-5-----------| 
d-----------------8-------| 
a-------------------------| 
e-------------------------| 







solo transição

e--5----------------------------
b-----6--8----------------------
g-----------5-6-----------------
d----------------9-10-----------
a---------------------12--10/12-
e-------------------------------

e|--5----------------- 
b|----6-8------------- 
g|--------5-6--------- 
d|------------7-5----7 
a|10--------------8--- 
e|-------------------- 



e---------------------------------
b----------15-13/15-----------5-6-
g-------14----------14------------
d----15-----------------17-15-----
a-17------------------------------
e---------------------------------

e|---------------------------------
b|8-8b-6-------------------------9-
g|--------5-----------5-5b---12----
d|----------9--------7-------------
a|--------------5-7-8--------------
e|---------------------------------

e|------------- 
b|----13-18-20- 
g|16----------- 
d|------------- 
a|------------- 
e|------------- 



e--17-20-22-22-------------| 
b--------------------------| 
g--------------------------| 
d--------------------------| 
a--------------------------| 
e--------------------------| 







Solo transição 2

e--13----------------13/15-13----
b-----15---------------------15--
g--------15-13-15----------------
d--------------------------------
a--------------------------------
e--------------------------------

e|----------13---------------13-----
b|---------------------13-15-----17-
g|13-15---------15b-15--------------
d|----------------------------------
a|----------------------------------
e|----------------------------------

---13-15---17b-17b- 
17----------------- 
------------------- 
------------------- 
------------------- 
------------------- 

______________2x_____________________


e--15-13-------------------------
b-----------17-15-13---17-19-20--
g--------------------------------
d--------------------------------
a--------------------------------
e--------------------------------

e|17-18-20-18-20-----18-20---22-22-
b|----------------17---------------
g|---------------------------------
d|---------------------------------
a|---------------------------------
e|---------------------------------

20v-| 
----| 
----| 
----| 
----| 
----| 



solo final

e-----------13b-13-13------------
b-------15-------------16-14-16--
g---15---------------------------
d--------------------------------
a--------------------------------
e--------------------------------

e|-------13-18-----17---------------
b|15------------20-----18---16b-16b-
g|----------------------------------
d|----------------------------------
a|----------------------------------
e|----------------------------------

--------------- 
16b-16b--20-18- 
--------------- 
--------------- 
--------------- 
--------------- 



e--------13-18b-17---------------
b---15--------------18-----------
g-----------------------17-------
d---------------------------17---
a--------------------------------
e--------------------------------

e|----------------------------------
b|----------------------------------
g|----------------------------14-15-
d|-----17--------15-15-15-----------
a|20-------20-----------------------
e|----------------------------------

----------13-----------13b| 
----------------16-13-----| 
15---15-------------------| 
--------------------------| 
--------------------------| 
--------------------------| 



Como tocar:

solo 1,  solo 2 2x


A A7 Justice to the left of you ,justice to the right A A7 Speak when you are spoken to, don't pretend you're right A This life's not for living , It's A7 for fighting and for wars A F No matter what the truth is, hold Am7 on to what is yours A5 C5 B5 Bb5 A5 sequencia 1 A5 C5 B5 Bb5 A5 A A7 Jigsaw puzzle traitors ,set to spill the beans A A7 Constitution screw up ,shattering the dreams lick 1 A A7 Blood flows in the desert ,dark citadels burning too A Watch! Look over your shoulder F Am7 This one is strictly for you D5 E5 F5 D#5 Bb5 F5 Hold on - Hold on sequencia 2 Bb5 Wait maybe the answer's looking for you F5 D#5 Bb5 F5 Hold on - Hold on sequencia2 Bb5 Wait! Take you time Think it through Yes! I can make it through solo transição F5 D#5 Bb5 F5 Hold on - Hold on D#5 Bb5 Sunshine shine on through F5 D#5 Bb5 F5 Hold on - Hold on D#5 Bb5 E5 Sunshine shine on you yooouu lick2 See it through Talk the simple smile Such platonic eye How they drown in incomplete capacity Strangest of them all When the feeling calls How we drown in stylistic audacity Charge the common ground lick 3 A7 Round and round and round We living in gravity A Shake - We shake so hard A7 How we laugh so loud When we reach we believe in eternity A5 C5 B5 Bb5 A5 I believe in eternity lick 4 F5 D#5 Bb5 F5 Hold on - Hold on D#5 Sunshine take your time see it Bb5 through lick 5 F5 D#5 Bb5 F5 Hold on - Hold on D#5 Sunshine maybe the answer´s looking Bb5 for you Solo transição 2 F5 D#5 Bb5 F5 Hold on - Hold on sequência 3 F5 D#5 Bb5 F5 Hold on - Hold on lick 6 F5 D#5 Bb5 F5 Sunshine - Shine on shine on you D#5 Bb5 Sunshine - Shine on you lick 7 F5 D#5 Bb5 F5 Sunshine - Shine on shine on through D#5 Bb5 Sunshine - Shine on you F5 D#5 Hold on (Sunshine - Shine on) Bb5 F5 Hold on ( shine on through ) D#5 Bb5 Sunshine - Shine on through ( maybe the answer´s looking for you ) lick 8 F5 D#5 Hold on (Sunshine - Shine on) Bb5 F5 Hold on (Shine on through ) D#5 Sunshine - take your time see it Bb5 through Solo final
Composición: Chris Anderson / Chris Squire / Trevor RabinColaboración y revisión: Gustavo Gomes

Utilizamos cookies para personalizar sua experiência. Ao acessar o site, você concorda com a nossa Política de Privacidade.