Making Plans For Nigel

Xtc

Instrumento: Baixo
Standard Tuning

Main Riff
G|-------------------------------------------------------------------|
D|-------------------------------------------------------------------|
A|-----------------7-7-7-7-7-7-7-7-----------------------------------|
E|-3-3-3-3-3-3-3-3/----------------7-7-7-7-7-7-7-5-7-7-7-7-7-7-7-7---|

G|-------------------------------------------------------------------|
D|-------------------------------------------------------------------|
A|-------------------------------------------------------------------|
E|-5-5-5-5-5-5-5-5-5-5-5-5-5-5-5-5-3-3-3-3-3-3-3-3-1-1-1-1-1-1-1-1---|

G|-------------------------------------------------------------------|
D|-----2-2-2-0-----2-2-2-2-2-0---------------------------------------|
A|-------------2-0-------------2-0-5-5-5-5-5-5-5-5-5-5-5-5-5-5-5-5---|
E|-0-0---------------------------------------------------------------|

G|-------------------------------------------------------------------|
D|-2-2-2-2-2-2-2-2-2-2-2-2-2-2-2-2-----------------------------------|
A|-------------------------------------------------3-3-3-3-3-3-3-3---|
E|---------------------------------1-1-1-1-1-1-1-1-------------------|

G|-------------------------------------------------------------------|
D|-------------------------------------------------2-2-2-2-2-0-------|
A|-------------------------------------------------------------2-0---|
Composición: Colin MouldingColaboración y revisión: