Play That Funky Music

Wild Cherry

Tono: G
^ hammer on

#1t1#INTRO and VERSES:
#1t2#e----------------------------
B----------------------------
G----------------------------
D-------2-0-2-------0^2------
A--------------0^2-----------
E--0-0-----------------------#/1t2##/1t1#

#2t1#CHORUS:
#2t2#e----------------------------
B----------------------------
G----------------------------
D-------5-3-5-------3^5------
A--------------3^5-----------
E--3-3-----------------------#/2t2##/2t1#

I hope this is about right! :)
Composición: Rob ParissiColaboración y revisión: