A
123
X02220
C
123
X32010
D
123
XX0232
E
123
022100
G
123
320003
Tono: G
[Intro]


    G
E|-------------------------------
B|---------------8--7---7--5---5-
G|------4--7--7-------7------5---
D|----5--------------------------
A|--5----------------------------
E|-------------------------------

E|---------------------------------| 
B|---------------------------------| 
G|7-------5--5---4--5--7--4--5--4--| 
D|--7---4------7-------------------| 
A|----5----------------------------| 
E|---------------------------------| 



    G
E|-------------3--2---2--0---0---
B|-----0--3--3------3------1---3-
G|---0---------------------------
D|--0----------------------------
A|-------------------------------
E|-------------------------------

E|---------------------------------| 
B|---------------------------------| 
G|-----2--5-5--2--4--5--7--4--5--4-| 
D|0--4-----------------------------| 
A|---------------------------------| 
E|---------------------------------| 


[Primeira Parte]

 D                   G
Que el cielo no es azul
        D           G
Ai mi amor, ai mi amor
 D                G
Que es rojo dices tú
       D            G
¡ay mi amor! ¡ay mi amor!

 D            G
Vez todo al revés
       D            G
¡ay mi amor! ¡ay mi amor!
 D                      G
Creo que piensas con los pies
       D            G
¡ay mi amor! ¡ay mi amor!

G C Tú me traes un poco loco D G Un poquititito loco G C Estoy adivinando D G Que quieres y pa' cuando G D Y así estoy celebrando C D G Que me he vuelto un poco loco ( D G D G D G ) ( D G D G D G E ) A D chiflado tú me vuelves E A Y eso está un poco loco A D Tu mente que despega E A Tú siempre con ideas E Con mi cabeza juegas D E A Todo es un poco loco A D Todo es un poco loco E A Con mi cabeza juegas D Todo es un poco loco E A Con mi cabeza juegas D Todo es un poco loco E A Con mi cabeza juegas D Todo es un poco loco E A Con mi cabeza juegas D E Un poqui titi ti titi ti titi A titititi to loco
Composición: Adrian Molin / Germaine FrancoColaboración y revisión: Alex DonatiPedro MirandaNan tutuSheymelly Stephaniey más 1

Utilizamos cookies para personalizar sua experiência. Ao acessar o site, você concorda com a nossa Política de Privacidade.