Vai Me Perdoando

Victor e Leo

C
123
X32010
D
123
XX0232
Em
12
022000
G
123
320003
Tono: G
Capotraste na 2º casa

Intro:


E|--------------------|-----------
B|--------------------|-----------
G|-11-11--------------|-11-11-----
D|-------11--11-11-11-|-------11--
A|--------------------|-----------
E|--------------------|-----------

E|---------| 
B|---------| 
G|---------| 
D|11-11-11-| 
A|---------| 
E|---------| 



E|--------------------|-----------
B|--------------------|-----------
G|--------------------|-----------
D|-12-12--------------|-12-12-----
A|-------12--12-12-12-|-------12--
E|--------------------|-----------

E|---------|     
B|---------|     
G|---------|     
D|---------|     
A|12-12-12-|     
E|---------|     



E|--------------------|-----------
B|--------------------|-----------
G|--------------------|-----------
D|-11-11--------------|-11-11-----
A|-------12--12-12-12-|-------12--
E|--------------------|-----------

E|---------|     
B|---------|     
G|---------|     
D|---------|     
A|12-12-12-|     
E|---------|     




E|--------------------|----------
B|--------------------|----------
G|--------------------|----------
D|-9-9----------------|-9-9------
A|-------7--7-7-7-----|-------7--
E|--------------------|----------

E|----------|     
B|----------|     
G|----------|     
D|----------|     
A|7-7-7-----|     
E|----------|     





        Em                     
Vai me perdoando esse meu jeito 
                             C
estranho eu sei que fez você sofrer
Tudo era mentira e você quis pagar 
    G
pra ver
                          D
Sei que é a hora, hora de dizer 
adeus
          Em                    
Vai me perdoando esquece aqueles 
                             C
planos tudo que eu te prometi
Sei que é difícil encarar que seja o
   G
 fim
                           D
Mas vai me perdoando, enfim


Refrão: Em Vai perdoando alguém que sempre só quis o seu bem C E vai lembrando que o ser humano erra também G Nunca mais chore por amor, perdoa D por favor, entenda Em Vai perdoando que o destino te trará alguém C E com os anos você vai se esquecer meu bem G Nunca mais chore por amor, perdoa D por favor, entenda E|-------------------------------- B|-------------------------------- G|---------9/7-----7/6-----6/4--4- D|--2-2-2-------2-------2--------- A|-------------------------------- E|-------------------------------- E|---|-------------------------- B|---|-------------------------- G|---|--9--9--/7----7/6----6/4-- D|2--|------------2------2------ A|---|-------------------------- E|---|-------------------------- E|-----------| B|-----------| G|2—4h2---2--| D|------4----| A|-----------| E|-----------| E|------------------------------- B|--3-3--3---5---7---5---3---2--- G|------------------------------- D|--4-4--4---5---7---5---4---2--- A|------------------------------- E|------------------------------- E|5~~-|--7--5--7/9--9-10-9--7-7-------14-12-14/16| B|5~~-|-------------------------5-5~-------------| G|----|------------------------------------------| D|----|------------------------------------------| A|----|------------------------------------------| E|----|------------------------------------------| Em Vai me perdoando esse meu jeito C estranho eu sei que fez você sofrer Tudo era mentira e você quis pagar G pra ver D Sei que é a hora, hora de dizer adeus Em Vai me perdoando esquece aqueles C planos tudo que eu te prometi Sei que é difícil encarar que seja o G fim D Mas vai me perdoando, enfim Refrão(2x): Em Vai perdoando alguém que sempre só quis o seu bem C E vai lembrando que o ser humano erra também G Nunca mais chore por amor, perdoa D por favor, entenda Em Vai perdoando que o destino te trará alguém C E com os anos você vai se esquecer meu bem G Nunca mais chore por amor, perdoa D por favor, entenda Em (deixa soar) Vai me perdoando...
Composición: Paulinha GonçalvesColaboración y revisión: vinicius pauloUelisson OliveiraJhonatan Frassetti

Utilizamos cookies e outras tecnologias semelhantes para melhorar e personalizar sua experiência de uso. Ao navegar nos produtos, você concorda com as condições descritas em nossa Política de Privacidade.