Te Recuerdo Amanda

Victor Jara

A
123
X02220
A7+
123
X02120
A7+/E
1234
XX2224
B
234
X24442
Bm
234
X24432
Bm/F#
1234
XX4432
C
123
X32010
D
123
XX0232
D6
134
X5420X
E
123
022100
Em/G
1234
3X245X
F#m
34
244222
G
123
320003
G6
1234
3X243X
Tono: G
Intro :  
 
E||------7-----7-----0--|-----0-----0--|-----------------0--|-----0-----0--| 
B||---------7-----5------|--------5------|-----5-----5--------|--------5-----| 
G||*--0------------------|--6------------|--------4-----7-----|--6-----------| 
D||*----------------------|-----------------|--5-----------------|----------------| 
A||-----------------------|-----------------|----------------------|---------------| 
E||-----------------------|-----------------|----------------------|---------------| 
 
 
                                       
#1t1##1t2#-----------0-----0--|---------------|| 
-----5---------------|---------------|| 
--------4-----7-----|--------------|| 
--5-----------------|---------------|| 
---------------------|---------------|| 
---------------------|---------------|| #/1t2##/1t1#
 
      D            F#m 
Te recuerdo Amanda, 
la calle mojada, 
    G                 
corriendo a la fábrica 
C                  D6 
donde trabajaba Manuel. 
 
D6               F#m 
La sonrisa ancha, 
la lluvia en el pelo, 
   G                 
no importaba nada, 
C                      D6 
ibas a encontrarte con él, 
                            Bm 
con él, con él, con él, con él... 
Bm/F#        A 
son cinco minutos, 
            A7+ 
la vida es eterna 
   A7+/E   Em/G 
en cinco minutos. 
            A7+ 
Suena la sirena, 
Em/G            A7+ 
de vuelta al trabajo 
  Em/G    F#m 
y tú, caminando, 
             G 
lo iluminas todo, 
            E    - G6 
los cinco minutos 
               E 
te hacen florecer. 
 
Te recuerdo Amanda, 
la calle mojada, 
corriendo a la fábrica 
donde trabajaba Manuel. 
 
La sonrisa ancha, 
la lluvia en el pelo, 
no importaba nada, 
ibas a encontrarte con él, 
con él, con él, con él, con él... 
que partió a la sierra, 
que nunca hizo daño, 
que partió a la sierra 
y en cinco minutos 
quedó destrozado. 
 
Suena la sirena, 
de vuelta al trabajo 
muchos no volvieron, 
tampoco Manuel. 
 
Te recuerdo Amanda, 
la calle mojada, 
corriendo a la fábrica 
donde trabajaba Manuel. 
Composición: Victor JaraColaboración y revisión: