Like Gold

Vance Joy

Bm
234
X24432
C
123
X32010
D
123
XX0232
Em
12
022000
G
123
320003
Tono: G
[Intro]  C  Em  G  D


    C
E|--------------------------| 
B|--------------------------| 
G|-----0-----0-----0-----0--| 
D|---2-----2-----2-----2----| 
A|-3-----3-----3-----3------| 
E|--------------------------| 



    Em
E|--------------------------| 
B|--------------------------| 
G|-----0-----0-----0-----0--| 
D|---2-----2-----2-----2----| 
A|--------------------------| 
E|-0-----0-----0-----2------| 



    G
E|--------------------------| 
B|--------------------------| 
G|-----0-----0-----0-----0--| 
D|---0-----0-----0-----0----| 
A|--------------------------| 
E|-3-----3-----3-----3------| 



    D
E|--------------------------| 
B|--------------------------| 
G|-----0-----0-----0-----0--| 
D|---4-----4-----4-----4----| 
A|-5-----5-----5-----5------| 
E|--------------------------| 


C
Time to let it go
Em
It won't let go of me
G
Hanging by a thread
D
Cutting the cord and then falling 
back into the
C
Black 'cause if I don't
Em
If I wait 'til it feels right
          G
I'll be waiting my whole life
D
Closing my eyes, remember how we 
were like

C
Gold, when you see me
Em
Hi, if you need me
G                        D
Babe, that's the way it was
That's the history
C                     Em
Blue, how we used to roar
              G
Like an open fire
                   D
That's the way it was
But that's history

C
O-o-o-o-o-o
Em
O-o-o-o-o
G                  D
That's the way it was
But that's history
C
O-o-o-o-o-o
Em
O-o-o-o-o
G                  D
That's the way it was
But that's history

C
I have a memory
        Em
You're visiting me at night
 G
Climbing in my bed
D
You were so quiet that you never 
woke me
C I love the way you could Em See the good in everything G But, do we fuel the fire? D Closing my eyes, remember how we were like C Gold, when you see me Em Hi, if you need me G D Babe, that's the way it was That's the history C Em Blue, how we used to roar G Like an open fire D That's the way it was But that's history C Started with a word Em Now, look at where we are G Everything we've done D It's there on our faces for anyone willing to C Read between the lines Em Now, look at where we are G Everything we've done D It's there on our faces for anyone willing to C O-o-o-o-o-o Em O-o-o-o-o G D That's the way it was But that's history C O-o-o-o-o-o Em O-o-o-o-o G D That's the way it was But that's history Bm C Well, I got a feeling D G Darling, it's possible C 'Cause love's got no ceiling D G Now, that it's just so strong C And I got a feeling D G Like everything is possible C D I'm trying to change C M-m-m-m-m C Gold, when you see me Em Hi, if you need me G D Babe, that's the way it was That's the history C Em Blue, how we used to roar G Like an open fire D That's the way it was But that's history C Started with a word Em Now, look at where we are G Everything we've done D It's there on our faces for anyone willing to C Read between the lines Em Now, look at where we are G Everything we've done D Started out with just one C O-o-o-o-o-o Em O-o-o-o-o G O-o-o-o-o D O-o-o-o C O-o-o-o-o-o Em O-o-o-o-o G O-o-o-o-o D O-o-o-o C Gold, when you see me Em Hi, if you need me G D Babe, that's the way it was But that's history
Composición: Vance JoyColaboración y revisión: Marcelo PinqRute Cavalcante

Utilizamos cookies para personalizar sua experiência. Ao acessar o site, você concorda com a nossa Política de Privacidade.