Am7
12
X02010
Cadd9
34
X35533
Cmaj7
12
X3200X
Em
12
022000
Tono: G

#This file is the author's own work and represents their interpretation of the#


Transcribed by: Pete.
July 2000


{Play this 1st riff 2 times before starting the lyrics}

-|-----------------0--------------------------------------|-------------------|
-|-3---0-0---0---3---0-2---2---3---0-1---1---1---0-3---3--|-------------------|
-|---0-----2---0---------2---2---2-----0---0---0-----2---2|-------------------|
-|--------------------------------------------------------|-------------------|
-|-2-----0-------2-----0-------0-----3-------3-----0------|-------------------|
-|--------------------------------------------------------|-------------------|

No words to say, no words to convey, these feelings inside, I have for you.

-|---------------------------------------------------|------------------------|
-|-3---0-0---0---1---0-3---3---3---0-2---2---3---0-1-|------------------------|
-|---0-----2---0---0-----2---2---0-----2---2---2-----|------------------------|
-|---------------------------------------------------|------------------------|
-|-2-----0-------3-----0-------2-----0-------0-----3-|------------------------|
-|---------------------------------------------------|------------------------|

Deep in my heart, safe from the guards, of intellect and reason.

-|-----------------------|----------------------------------------------------|
-|-3---0-2---2---3---0-1-|----------------------------------------------------|
-|---0-----2---2---2-----|----------------------------------------------------|
-|-----------------------|----------------------------------------------------|
-|-2-----0-------0-----3-|----------------------------------------------------|
-|-----------------------|----------------------------------------------------|

Leaving me a loss for words to express my feelings

-|----------------------------------------------------0--0-0-|----------------|
-|-3---0-0---0---1---0-3---3---3---0-0---0---1---0-3--3--3-3-|----------------|
-|---0-----2---0---0-----2---2---0-----2---0---0------2--2-2-|----------------|
-|----------------------------------------------------0--0-0-|----------------|
-|-2-----0-------3-----0-------2-----0-------3-----0---------|----------------|
-|-----------------------------------------------------------|----------------|

Deep in my heart, Deep in my heart,


[CHORUS]

[Em]                                [Cadd9]
Look at me loosing control, thinking I had it all.
[Am7]                           [Cmaj7]
Now the feelings are strong, no longer the master of my emotions.

{play whole thing 2wice then end with the 1st riff 2wice at the end.}
Composición: Colaboración y revisión: