Seven Nation Army

The White Stripes

Tono: G
Riff 1:

#1t1##1t2#E|----------------------------------------------|
B|----------------------------------------------|
G|----------------------------------------------|
D|----------------------------------------------|
A|----7--7-10-7-5-3--2--------------------------|
E|----------------------------------------------|#/1t2##/1t1#

Riff 2:

#2t1##2t2#E|---------------------------------------------|
B|---------------------------------------------|
G|---------------------------------------------|
D|---------------------------------------------|
A|----5-5-5-5-5-5-5-5-7-7-7-7-7-7-7-7----------|
E|----3-3-3-3-3-3-3-3-5-5-5-5-5-5-5-5----------|#/2t2##/2t1#

Riff 3:

#3t1##3t2#E|-------------------------------------------------------------|
B|-------------------------------------------------------------|
G|---9--9-12-9-7-5-4~----9--9-12-9-7-5\7/5-4-------------------|
D|---9--9-12-9-7-5-4~----9--9-12-9-7-5\7/5-4-------------------|
A|---7--7-10-7-5-3-2~----7--7-10-7-5-3\5/3-2-------------------|
E|-------------------------------------------------------------|#/3t2##/3t1#

[Solo]

1° Parte
2x
#4t1##4t2#E|-----------------------------------------------------------------------------------|
B|--5----5--8--5--5--8----7----5----5--8--8/10--8--8/10--8--7------------------------|
G|-----------------------------------------------------------------------------------|
D|-----------------------------------------------------------------------------------|
A|-----------------------------------------------------------------------------------|
E|-----------------------------------------------------------------------------------|#/4t2##/4t1#

2°Parte

#5t1##5t2#E|--12--12/14--12--12--15b--14------12--12--15--17--15--15--15/17--15--14------------|
B|-----------------------------------------------------------------------------------|
G|-----------------------------------------------------------------------------------|
D|-----------------------------------------------------------------------------------|
A|-----------------------------------------------------------------------------------|
E|-----------------------------------------------------------------------------------|#/5t2##/5t1#

#6t1##6t2#E|--12--12/14--12--12--15b--15-|--12--12/14--12--12/14--12---------33333333-55555555-|
B|------------------------------|---------------------------13--12-------------------|
G|------------------------------|----------------------------------------------------|
D|------------------------------|----------------------------------------------------|
A|------------------------------|----------------------------------------------------|
E|------------------------------|----------------------------------------------------|#/6t2##/6t1#

#7t1##7t2#E|--------------|
B|--------------|
G|------9~~~~---|
D|------9~~~~---|
A|--0---7~~~~---|
E|--------------|#/7t2##/7t1#

(Riff 1 - 4x)

          (Riff 1)
I'm gonna fight em' off
               (Riff 1)
A seven nation army couldn't hold me back
              (Riff 1)
They're gonna rip it off
             (Riff 1)
Takin' their time right behind my back
        (Riff 1)
And I'm talkin' to myself at night because I can't forget
(Riff 1)                                          (Riff 1)
Back and forth through my mind behind a cigarette
      (Riff 2)
And a message comin' from my eyes, says leave it alone

(Riff 3 - 4x)

(Riff 2 - 1x)

(Riff 1 - 4x)

           (Riff 1)
Don't wanna hear about it
              (Riff 1)
Every single one's got a story to tell
         (Riff 1)
Everyone knows about it
                  (Riff 1)
From the queen of England to the hounds of hell
         (Riff 1)
And if I catch you comin' back my way, I'm gonna serve it to you
     (Riff 1)                                              (Riff 1)
And that ain't what you want to hear, but that's what I'll do
      (Riff 2)
And a feelin' comin' from my bones, says find a home

[Solo]

#8t1##8t2#E|--12--12/14--12--12--15b--14------12--12--15--17--15--15--15/17--15--14------------|
B|-----------------------------------------------------------------------------------|
G|-----------------------------------------------------------------------------------|
D|-----------------------------------------------------------------------------------|
A|-----------------------------------------------------------------------------------|
E|-----------------------------------------------------------------------------------|#/8t2##/8t1#

#9t1##9t2#E|--12--12/14--12--12--15b--15-|--12--12/14--12--12/14--12---------33333333-55555555-|
B|------------------------------|---------------------------13--12-------------------|
G|------------------------------|----------------------------------------------------|
D|------------------------------|----------------------------------------------------|
A|------------------------------|----------------------------------------------------|
E|------------------------------|----------------------------------------------------|#/9t2##/9t1#

(Riff 1 - 4x)

            (Riff 1)
Im going to Wichita
              (Riff 1)
Far from this opera forever more
         (Riff 1)
Im gonna work the straw (?)
               (Riff 1)
Make the sweat drip out of every pore
        (Riff 1)
And I'm bleedin' and I'm bleedin' and I'm bleedin' right before my lord
        (Riff 1)                                              (Riff 1)
All the words are gonna bleed from me, and I will sing no more
         (Riff 2)
And the stains comin' from my blood tell me "go back home"

#10t1##10t2#E|--------------|
B|--------------|
G|------9~~~~---|
D|------9~~~~---|
A|--0---7~~~~---|
E|--------------|#/10t2##/10t1#
Composición: Jack WhiteColaboración y revisión: Patrick SanchezLeonardo Hmikas 1Nicoly Roxanney más 28
videoclase SEVEN NATION ARMY - The White Stripes (aula simplificada) | Como tocar na guitarra