Am
123
X02210
Am7/B
1234
X22015
Bm
234
X24432
C
123
X32010
D
123
XX0232
F
234
133211
G
123
320003
Tono: G

 (guitar 1)
     G                  Am        
E|-3----3--------3----0--0-0--0--
B|-3--3--3-------3----1--1-1--1--
G|-0--0---0------0----2--2-2--2--
D|-0--0----0-----0----2--2-2--2--
A|-2--------2----2----0--0-0--0--
E|-3---------3-3---3-------------
              G                   
E|0-0--0-----3-3-----3----0-0-0-0---
B|1-1--1-----3-3-3---3----1-1-1-1---
G|2-2--2-----0-0-0---0----2-2-2-2---
D|2-2--2-----0-0-0---0----2-2-2-2---
A|0-0--0-----2-2-----2----0-0-0-0---
E|-----------3-----3---3------------

----------------| 
----------------| 
2/4--2--0--2----| 
----------------| 
----------------| 
--------------3-| 



E|10---8----7-----------------
B|12---10---8-----------------
B|----------------------------
D|----------------------------
A|----------------------------
E|----------------------------

E|(7)/10-10-10-10-8--7-| 
B|(8)/12-12-12-12-10-8-| 
B|---------------------| 
D|---------------------| 
A|---------------------| 
E|---------------------| 



                           Child________hood living
                       Bm         
E|--3------3--3------2---2--2---2-
B|----3----3----3----3---3--3---3-
G|------0--0------0--4---4--4---4-
D|-------------------4---4--------
A|-------------------2------------
E|--------(3)---------------------
               G                    
E|--------------3-3-----3-----------
B|--------------3-3-----3---3-------
G|------------------------------0---
D|----------------------------------
A|----2--0--------------------------
E|-----------3----------------------
      Bm
E|--2------------| 
B|--3------------| 
G|--4------------| 
D|--4------------| 
A|--2------------| 
E|---------------| 



       is e____asy to do                                  the things    you
                                  
E|---2--2-------------------------
B|---3--3--3--------------------3-
G|---4----------------------2/4---
D|--------------------------------
A|--------------------------------
E|--------------------------------
                    Am
E|---------------------0--0-------0-
B|---------------------1--1--1----1-
G|42-0----------------2--2--2----2--
D|-------2--0----------2--2--2----2-
A|------------0h2-0----0------------
E|----------------------------------

E|----0----------| 
B|----0----------| 
G|---0----------|  
D|----0----------| 
A|---------------| 
E|---------------| 



 Wanted                        I Bought them for you                       grace__
     C                     G      
E|-0--0-0-0-----------------3-3-3-
B|-1--1-1-1-----------------3-3-3-
G|-2--2-2-2------2r0--------0-0---
D|-0--0-0-0-----------0-----0-----
A|-3------------------------------
E|------------3----------3--------
                    D               
E|3-3-------------------------------
B|3-3---------------3-3---3-3-------
G|0-0---------------2-2---2-2-0h2---
D|------------------0-0-0---0-------
A|----------------------------------
E|----------------------------------
        Bm
E|-------2-2-2-2-| 
B|-------3-3-3-3-| 
G|-------4-4-4-4-| 
D|---------4-----| 
A|----2----------| 
E|---------------| 



  __less  lady                  you know  how I am             You know I can't
          G                 Bm    
E|---------------------------2-2-
B|--------3------3-----------3-3-
G|--------0--2/4---42-0-----4-4-4
D|--------0--------------------4-
A|-2r0--------------------2------
E|------3------------------------
                   G            
E|2-2-2-2-----------3-3-3-3------0-0
B|3-3-3-3-----------3-3-3-3----1-1-1
G|-4-4-4-----------0-0-0-0-0--2-2-2-
D|4-4---------------0-0--------2-2-2
A|-----------------------------0----
E|----------------3-----------------

-0-0-0--0-------| 
-1-1-1--0-------| 
2-2-2--0-------|  
-2---2--0-------| 
----------------| 
----------------| 



   let you                 slide through my hands_______
     C                   G        
E|-0-----------------------3--3-3-
B|-1-----------------------3--3-3-
G|-2-----0-----------------0--0-0-
D|-0-0h2---2r0---0h2-0-----0----0-
A|-3------------------------------
E|-------------3-------3----------
 |                                
               D
E|3-3--3-----2--2-----2-------------
B|3-3--3-----3--3-----3-------------
G|0-0--0-----2--2-----2-------------
D|0----0-----0--0-----0-------------
A|----------------------------------
E|----------------------------------
                                  

E|---------------| 
B|---------------| 
G|---------------| 
D|---------------| 
A|---------------| 
E|---------------| 
               | 


E|--------------------------------
B|----------10r8------------------
G|-----------------9r7------------
D|--------------------------------
A|--------------------------------
E|--------------------------------


(refrão)
Am       C
   Wild Horses,
D G          F        C   Am7/B
   Couldn't drag me away,
Am             C
   Wild, wild horses,
D G          F        C
   Couldn't drag me away...

Bm G I watched you suffer Bm G a dull, aching pain Am C Now you decided G D to show me the same Bm G No sweeping exits Bm G or offstage lines, Am C Can make me feel bitter G D or treat you unkind (refrão) Bm G I know I dreamed you Bm G a sin and a lie, Am C I have my freedom G D but I don't have much time Bm G Faith has been broken Bm G tears must be cried, Am C Let's do some living G D after we die Am C Wild Horses, D G F C Am7/B couldn't drag me away. Am C Wild, wild horses, D G F C we'll ride them someday
Composición: Keith Richards / Mick JaggerColaboración y revisión: João NetoLUIS

Utilizamos cookies e outras tecnologias semelhantes para melhorar e personalizar sua experiência de uso. Ao navegar nos produtos, você concorda com as condições descritas em nossa Política de Privacidade.