Hotel California

Eagles

A
123
X02220
B7(4/9)
X22222
Bm
234
X24432
D
123
XX0232
E
123
022100
E7
1234
022130
Em
12
022000
F#7
34
242322
G
123
320003
Tono: G
[Intro]

[Intro - Parte 1 de 3]


    Bm  B7(4/9) Em   F#7
E|--2----2------0----------2------
B|--3----2------0----------2------
G|--4----2------0----------3------
D|--4----2------2--------2--------
A|--2----2------2------4----------
E|--------------0----2------------


[Intro - Parte 2 de 3]


    Bm  B7(4/9) Em   F#7
E|--2----2------0----2------------
B|--3----2------0----2------------
G|--4----2------0----3------------
D|--4----2------2----2------------
A|--2----2------2----4------------
E|--------------0----2------------


[Intro - Parte 3 de 3: Tab 1]


    Bm              F#7
E|------------2---------------2---
B|--------3-----3---------2-------
G|------4---4-----------3---3-----
D|----4---------------2-----------
A|--2-----------------------------
E|------------------2-------------


[Intro - Parte 3 de 3: Tab 2]


     A               E7
E|------------5---------------0---
B|--------2-----2---------0-------
G|------2---2-----------1---1-----
D|----2---------------0-----------
A|--0-----------------------------
E|------------------0-------------


[Intro - Parte 3 de 3: Tab 3]


    G               D
E|------------------------2---2---
B|------------3---------3-------3-
G|--------4-----4-----2-----2-----
D|------5---5-------0-------------
A|----5---------------------------
E|--3-----------------------------


[Intro - Parte 3 de 3: Tab 4]


    Em              F#7
E|------------0---------------2---
B|--------0---------------2-------
G|------0---0---0-------3---3-----
D|----2---------------2-----------
A|--------------------------------
E|--0---------------2-------------


[Primeira Parte: Tab 1]


    Bm              F#7
E|------------2---------------2---
B|--------3-----3---------2-------
G|------4---4-----------3---3-----
D|----4---------------2-----------
A|--2-----------------------------
E|------------------2-------------


[Primeira Parte: Tab 2]


    A               E7
E|------------5---------------0---
B|--------2-----2---------0-------
G|------2---2-----------1---1-----
D|----2---------------0-----------
A|--0-----------------------------
E|------------------0-------------


[Primeira Parte: Tab 3]


    G               D
E|------------------------2---2---
B|------------3---------3-------3-
G|--------4-----4-----2-----2-----
D|------5---5-------0-------------
A|----5---------------------------
E|--3-----------------------------


[Primeira Parte: Tab 4]


    Em              F#7
E|------------0---------------2---
B|--------0---------------2-------
G|------0---0---0-------3---3-----
D|----2---------------2-----------
A|--------------------------------
E|--0---------------2-------------


[Primeira Parte - Dedilhado Intro]

[Primeira Estrofe]

Bm
   On a dark desert highway
F#7
    Cool wind in my hair
A
  Warm smell of colitas
E7
   Rising up through the air
G
  Up ahead in the distance
D
  I saw a shimmering light
Em
   My head grew heavy and my sight 
grew dim
F#7
    I had to stop for the night

[Segunda Estrofe]

Bm
   There she stood in the doorway
F#7
    I heard the mission bell
A
  And I was thinking to myself
E7
   This could be Heaven or this 
could be Hell
G
  Then she lit up a candle
D
  And she showed me the way
Em
   There were voices down the 
corridor
F#7
    I thought I heard them say

[Refrão - Parte 1 de 3]


                D           F#7
E|--------------------2----------
B|------------------3-----3------
G|----------------2-----2--------
D|--------------0--------------2-
A|------2-4-5--------------------
E|--2h6----------------------2---

E|------2----| 
B|--2--------| 
G|3---3------| 
D|-----------| 
A|-----------| 
E|-----------| 


[Refrão - Parte 2 de 3]

D E|---------------------2---2------ B|--------------3----3-------3---- G|--------------2--2-----2-------- D|-------2-4-5--0----------------- A|-2-4-5-------------------------- E|-------------------------------- [Refrão - Parte 3 de 3] Em F#7 E|--0---------0--------------2---- B|--0-----0-----0--------2-------- G|--0---0---0----------3---3------ D|--2-2--------------2------------ A|-------------------------------- E|-----------------2-------------- G D Welcome to the Hotel California F#7 Such a lovely place Bm Such a lovely face G Plenty of room at the Hotel D California Em Any time of year F#7 You can find us here Segunda parte - repete dedilhado [Primeira estrofe] Bm Her mind is Tiffany-twisted F#7 She got the Mercedes-Benz A She got a lot of pretty, pretty boys E That she calls friends G How they dance in the courtyard D Sweet summer sweat Em Some dance to remember F#7 Some dance to forget [Segunda estrofe] Bm So I called up the Captain F#7 Please bring me my wine, he said A We haven't had that spirit here since E Nineteen sixty-nine G And still those voices are D calling from far away Em Wake you up in the middle of the night F#7 Just to hear them say [Refrão] G D Welcome to the Hotel California F#7 Such a lovely place Bm Such a lovely face G We're livin' it up at the Hotel D California Em What a nice surprise F#7 Bring your alibis [Terceira parte] [Primeira estrofe - pausa] Mirrors on the ceiling The pink champagne on ice, and she said We are all just prisoners here Of our own device And in the master's chambers They gathered for the feast The stab it with their steely knives But they just can't kill the beast [Segunda estrofe] Bm Last thing I remember, I was F#7 Running for the door A I had to find the passage back E To the place I was before G Relax, said the night man D We are programmed to receive Em You can check out any time you like F#7 But you can never leave [Solo] Bm F#7 A E7 G D Em F#7 [Solo - Parte 1 de 8] E|-------------------------------- B|------------------5-6-7h8p7p5-7- G|--4-4h6p4\3-4-6-7--------------- D|-------------------------------- A|-------------------------------- E|-------------------------------- [Solo - Parte 2 de 8] E|------------------------------- B|-----7-7h8p7\5-5h7p5\3-3h5p3\2- G|-7-9--------------------------- D|------------------------------- A|------------------------------- E|------------------------------- E|------0-7-9-7----14-| B|----2---------11----| G|4-3-----------------| D|--------------------| A|--------------------| E|--------------------| [Solo - Parte 3 de 8] E|-------------------------------- B|--------7-7-7-5-5-5------------- G|--------------------7-7-6-4----- D|--12\7----------------------7-6- A|-------------------------------- E|-------------------------------- [Solo - Parte 4 de 8] E|-------------------------0------ B|--3-3h5p3\2--2h3p2p0------------ G|---------------------2-1-------- D|-------------------------------- A|-------------------------------- E|-------------------------------- [Solo - Parte 5 de 8] E|-------------------------------- B|-------------------------------- G|------------------4-4h6p4-3-4-6- D|----4-5h7p5p4-5-7--------------- A|--7----------------------------- E|-------------------------------- E|----3--------------| B|3-5----------------| G|-------------------| D|-------------------| A|-------------------| E|-------------------| [Solo - Parte 6 de 8] E|--3/5-5-5-7-5/3-3/5------------ B|--5/7-7-7-8-7/5-5/7------------ G|------------------------------- D|-----------------------0h2h3h4- A|------------------------------- E|------------------------------- E|--------------------| B|-------0h2h3h4------| G|0h2h3h4-------------| D|--------------------| A|--------------------| E|--------------------| [Solo - Parte 7 de 8] E|--------3p0---7p3---10p7--- B|--5p0-------0-----0------8- G|------0-------------------- D|--------------------------- A|--------------------------- E|--------------------------- E|12p10-------------------| B|------12\---------------| G|------------------------| D|------------------------| A|------------------------| E|------------------------| [Solo - Parte 8 de 8] E|--2-2h3p2p0---0h2-0------------- B|------------3-------3-2h3p2p0-2- G|-------------------------------- D|-------------------------------- A|-------------------------------- E|-------------------------------- [Solo Final] [Solo Final - Parte 1 de 8] E|-------------------------------- B|--3p2-3-5-7p3---7p3---7p3---7p3- G|--------------4-----4-----4----- D|-------------------------------- A|-------------------------------- E|-------------------------------- E|-------------------| B|--7p3--------------| G|4-----4------------| D|-------------------| A|-------------------| E|-------------------| [Solo Final - Parte 2 de 8] E|------------------4/6----------- B|--5p2---5p2---5p2--------------- G|------3-----3------------------- D|-------------------------------- A|-------------------------------- E|-------------------------------- [Solo Final - Parte 3 de 8] E|-------------------------------- B|--5p2---5p2---5p2---5p2---5p2--- G|------2-----2-----2-----2-----2- D|-------------------------------- A|-------------------------------- E|-------------------------------- [Solo Final - Parte 4 de 8] E|------------------2/4----------- B|--3p0---3p0---3p0--------------- G|------1-----1------------------- D|-------------------------------- A|-------------------------------- E|-------------------------------- [Solo Final - Parte 5 de 8] E|-------------------------------- B|--3-----3-----3-----3-----3----- G|----4-----4-----4-----4-----4--- D|------5-----5-----5-----5-----5- A|-------------------------------- E|-------------------------------- [Solo Final - Parte 6 de 8] E|-------------------------------- B|--3-----3-----3---3/7----------- G|----2-----2-----2--------------- D|------4-----4------------------- A|-------------------------------- E|-------------------------------- [Solo Final - Parte 7 de 8] E|-------------------------------- B|-------------------------------- G|--4p0---4p0---4p0---4p0---4p0--- D|------2-----2-----2-----2-----2- A|-------------------------------- E|-------------------------------- [Solo Final - Parte 8 de 8] E|------------------------2----- B|------2-----3-----5p2-----3-2- G|--3h4---3-----3-------3------- D|----------4-----4------------- A|------------------------------ E|------------------------------ Bm E|------0--2--2--2--2--| B|3p2-3----3--3--3--3--| G|---------4--4--4--4--| D|---------4--4--4--4--| A|---------2--2--2--2--| E|---------------------|
Composición: Don Felder / Don Henley / Glenn FreyColaboración y revisión: Getúlio VasconcelosGustavo CunhaBruno Pelegrinirodnei orviedoy más 2
videoclase Hotel California (aula de violão)