Lullaby

The Cure

A
123
X02220
C#m
234
X46654
F#m
34
244222
Tono: G
#1t1#Intro:
            C#m                           A
#1t2#E|-----------------------0-0-|2-2-4-----0-2-2-4----------|
B|--2--0-2-2-0-2---0-2-2-----|------2-----------2--2--0--|
G|---------------------------|---------------------------|    x 2
D|---------------------------|---------------------------|
A|---------------------------|---------------------------|
E|---------------------------|---------------------------|#/1t2##/1t1#

(C#m  A)(x2)

#2t1#            C#m                           A
#2t2#E|-----------------------0-0-|2-2-4-----0-2-2-4----------|
B|--2--0-2-2-0-2---0-2-2-----|------2-----------2--2--0--|
G|---------------------------|---------------------------|    x 2
D|---------------------------|---------------------------|
A|---------------------------|---------------------------|
E|---------------------------|---------------------------|#/2t2##/2t1#

****São 6 vezes com a combinação de C#m e A****

    C#m
On candystripe legs spiderman comes,
 A
Softly through the shadow of the evening sun.
  C#m
Stealing past the windows of the blissfully dead,
 A
Looking for the victim shivering in bed.
 C#m
Searching out fear in the gathering gloom,
     A
And suddenly! A movement in the corner of the room!
              C#m
And there is nothing I can do when I realise with fright
           A
That the spiderman is having me for dinner tonight!

#3t1#            C#m                           A
#3t2#E|-----------------------0-0-|2-2-4-----0-2-2-4----------|
B|--2--0-2-2-0-2---0-2-2-----|------2-----------2--2--0--|
G|---------------------------|---------------------------|  (x2)
D|---------------------------|---------------------------|
A|---------------------------|---------------------------|
E|---------------------------|---------------------------|#/3t2##/3t1#

 C#m
Quietly he laughs, and shaking his head
         A
Creeps closer now, closer to the foot of the bed,
     C#m
And softer than shadow and quicker than flies,
     A
His arms are all around me and his tongue in my eyes...
     C#m
"Be still, be calm, be quiet now, my precious boy,
         A
Don't struggle like that, or I will only love you more,
         C#m
For it's much too late to get away or turn on the light;
      A
The spiderman is having you for dinner tonight!"

      F#m
And I feel like I'm being eaten
                                     A
By a thousand million shivering furry holes,
      F#m
And I know that in the morning
                                  A
I will wake up in the shivering cold...
                                 C#m
And the spiderman is always hungry...

#4t1#            C#m                           A
#4t2#E|-----------------------0-0-|2-2-4-----0-2-2-4----------|
B|--2--0-2-2-0-2---0-2-2-----|------2-----------2--2--0--|
G|---------------------------|---------------------------| (x2)
D|---------------------------|---------------------------|
A|---------------------------|---------------------------|
E|---------------------------|---------------------------|#/4t2##/4t1#
Composición: Boris Williams / Laurence Tolhurst / Porl Thompson / Robert Smith / Roger O'Donnell / Simon GallupColaboración y revisión: Ariely CarvalhoKaren SousaDouglas Silva