C
123
X32010
C5
134
X355XX
D/F#
1234
2X0232
D5/F#
123
2X023X
E5
12
022XXX
Em
12
022000
G
123
320003
G5
134
355XXX
Tono: G
[Intro] Em  C  G  D/F#
        E5  C5  G5  D5/F#
        E5  C5  G5  D5/F#
        E5 

#1t1##1t2#E|-7h8-5h7-3h5----2h3p2-------|
B|----------------------3-3-0-|
G|----------------------------|
D|----------------------------|
A|----------------------------|
E|----------------------------|#/1t2##/1t1#

[Primeira Parte

Em         C
  Another head hangs lowly
  G                D/F#
Child is slowly taken
Em                  C
  And the violence caused such silence
  G            D/F#
Who are we mistaken

         Em
But you see, it's not me
          C
It's not my family
         G
In your head, in your head
          D/F#
They are fighting
            Em
With their tanks, and their bombs
                C
And their bombs, and their guns
         G                            D/F#
In your head, in your head they are cryin'

[Refrão]

         E5            C5
In your head, in your head
    G5              D5/F#
Zombie, zombie, zombie êh êh
                E5            C5
What's in your head, in your head
    G5              D5/F#
Zombie, zombie, zombie êh êh êh ôh

( E5  C5  G5  D5/F# )
( E5 )

#2t1##2t2#E|-7h8-5h7-3h5----2h3p2-------|
B|----------------------3-3-0-|
G|----------------------------|
D|----------------------------|
A|----------------------------|
E|----------------------------|#/2t2##/2t1#

[Segunda Parte]

Em         C
  Another mother's breakin'
 G              D/F#
Heart is taking over
Em                   C
  When the violence causes such silence
 G             D/F#
We must be mistaken

          Em                     C
It's the same old theme since 1916
         G
In your head
                            D/F#
In your head they're still fightin'
            Em
With their tanks and their bombs
           C
And their bombs and their guns
         G                           D/F#
In your head, in your head they are dying

[Refrão]

         E5            C5
In your head, in your head
    G5              D5/F#
Zombie, zombie, zombie êh êh
                E5            C5
What's in your head, in your head
    G5              D5/F#
Zombie, zombie, zombie êh êh êh ôh

( E5  C5  G5  D5/F# )
( E5 )

[Solo]

#3t1##3t2#E|-7/8---5/7----7/8---5/7--7-7-7---7/8---5/7--7-7-7---|
B|----------------------------------------------------|
G|----------------------------------------------------|
D|----------------------------------------------------|
A|----------------------------------------------------|
E|----------------------------------------------------|#/3t2##/3t1#

#4t1##4t2#E|-7/8---5/7-7-7-7---7/8---5/7-7-7-7---7/8--5/7-7-7-7-|
B|-----------7-7-7---7/8---5/7-7-7-7---7/8--5/7-7-7-7-|
G|----------------------------------------------------|
D|----------------------------------------------------|
A|----------------------------------------------------|
E|----------------------------------------------------|#/4t2##/4t1#

#5t1##5t2#E|-7/8---5/7---7\5---5---7---10--10/12--12\10-10-10-10|
B|-7/8---5/7---7\5---5---7---10--10/12--12\10-10-10-10|
G|----------------------------------------------------|
D|----------------------------------------------------|
A|----------------------------------------------------|
E|----------------------------------------------------|#/5t2##/5t1#

#6t1##6t2#E|-10/12--12\10--10-10-10---10\7--7--7\5--5/7--7--7-7-|
B|-10/12--12\10--10-10-10---10\7--7--7\5--5/7--7--7-7-|
G|----------------------------------------------------|
D|----------------------------------------------------|
A|----------------------------------------------------|
E|----------------------------------------------------|#/6t2##/6t1#

#7t1##7t2#E|-7/8---5/7-7-7-7---7/8---5/7-7-7-7---7/8--5/7-------|
B|-7/8---5/7-7-7-7---7/8---5/7-7-7-7---7/8--5/7-------|
G|----------------------------------------------------|
D|----------------------------------------------------|
A|----------------------------------------------------|
E|----------------------------------------------------|#/7t2##/7t1#

#8t1##8t2#E|-7\5------5------------5----------------------------|
B|-7\5------5------------5----------------------------|
G|----------------------------9-----------------------|
D|----------------------------9-----------------------|
A|----------------------------7-----------------------|
E|----------------------------0-----------------------|#/8t2##/8t1#
Composición: Dolores O'RiordanColaboración y revisión: Lucas KappaunGabriela RodriguesLeonardo BatistaMarcos Pauloy más 6